Oops, an error
Loading. Please wait.

Juro tab

version 3
version 3
4 views 1 this week
no commentswrite comment
1 2 3 4 5
3 more votes to show rating
add to favorites
×
Save as Personal and add changes to this tab that will be seen only by you. Learn more ›
×
You can save this tab as Personal to edit and correct it or add notes. All changes will be seen only by you. Learn more »
launch autoscroll
font size
0
reset
how to read this tab
guitar tuner
edit
Autoscroll
slow
fast
+/-
esc
set tempo
stop
Capo 1

Intro:
   G           G4         C9      C 
|-3---------3-3--------------------------------------3-|
|----------------------3-----3---3--3-----3------------|
|--0----------------0----2--------------2--------------|
|----0---0--------0--------0---0------0-----0-2-0-0----|
|------3--------1------------3------1------------------|
|------------------------------------------------------|

|-3---------3-----3---------------------------3-|
|-------------------------3------3--------------|
|--0------0------0----0----2---2-------------0--|
|----0--0-------0----0------0-0------0-0-2-0----|
|------3-------1----0--------3---1/0------------|
|-----------------------------------------------|

AQUÍ EMPIEZA EL POEMA:
  G        G4        C9     C         D9      B7             Em7     Em  Am/G    Am
|-3--------3----3--------------------------------------------0-----------------------|
|--------------------3------3---3----------------------2-2----2------2----0-----0----|
|--0---0-----0----0---2---2-----------0-------1------1---------2---2---2---2---------|
|---0-0-----0----0-----0-0---0---0-----2---2---2---2--2---------0-0---0-----2---2--2-|
|----3-----1----0-------3---1---0-------3-3-----0-0----0-0-0-----3---0-------1-1--1--|
|----------------------------------------0-------2--------2-------------------3--0---|
  D9       G                G4       C9      C7      G       G4    C                G
|----------3-------3-3------3---3--------------------3-------3--3-------------------3~|
|------------------------------------3-----3-3---------------------3---3--------3-2---|
|-0---------0---------0---0---0---0---2---------------------------0--0---------0------|
|--2-----2---0--0--0---0-0---0---0-----0-0-----3-3-3----0-0---0--0--0---0/2-0-0-------|
|---3--3------3---3-----3---1---0-------3----1--0-0------3-3-1--0--0---------0--------|
|----0-----------0--------------------------------------------------------------------|

G                    G4                         C9 C
'Si existiera un dios, preferiría que fuera mujer
                                                   D9
y así hablarle de tu, y de ti, y que me aconsejara.

B7
Preferiría que fuera mujer, y que fuera mi amiga,
         Em7                            Em
y que su sexo no fuera barrera, sino pretexto.
Am/G                                           Am                         D9
Que fuera mujer y amiga de aquellas que dan la vida cada vez que lo solicitas.
C9                 G                                                G4
Que fuera mujer y amiga para que me escuchara y me consolara y cerrara mis heridas.
C9                  C7                     G                     G4               C
Si existiera un dios en definitiva me gustaría que fuera como tu, aunque entonces 
                G
¿yo que haría?'

Intro2:

|-3------------------------0----------------------|
|--2------------------------------------------2-0-|
|---0-----------4-4-4-----4--4-4-4-4-------4------|
|----0------2-0--0-0-0-2---0--0-0-0-0-2-2-0-------|
|-----3-1-0-----------------------0----0----------|
|-------------------------------------------------|

|-3-----------------------------------------|
|--2----------------------------------------|
|---0-----------4-4-4----4-4-4-4----------4-|
|----0------2-0--0-0-0-2--0-0-0-0-2-4-2-0---|
|-----3-1-0---------------0-----------------|
|-------------------------------------------|

G1                                   Em                          Em/F# Em/G
Juro que no vuelvo a hablar del tema porque aunque no quiera todo terminó
G1                                  Em                    Em/F# Em/G
Cada quien mañana se dará la vuelta hacia su destino sin decir adiós

Em                        Bm1     Em   Am/G             Am                Bm*
Juro que no vuelves a escuchar mi voz  no importa que estalle todo mi interior
Em                            Bm1       C/G            C           D*         G1 G7-G7*
aunque yo no entienda ya esta situación ésta historia acaba porque nunca comenzó.

C/G         D9*                G1
Te doy la espalda, empiezo a andar
C/G      D*        G1
pero no dejo de pensar
C/G         D*           E*             E*-Em-E1
prendo un recuerdo para evaporar tu amor
C/G        D9*          Intro2.
y más se inflama el corazón

Juro que no vuelves a mirar mi cara mis manos hurgando por tu pantalón
No voy a causarte más de dos problemas si es que alguna vez escuchas mi canción


Juro que no vuelves a escuchar mi voz  no importa que estalle todo mi interior
aunque yo no entienda ya esta situación ésta historia acaba porque nunca comenzó.

Te doy la espalda, empiezo a andar
pero no dejo de pensar
prendo un recuerdo para evaporar tu amor
C/G        D9*          G1
y más se inflama el corazón

Juro que no vuelvo a hablar del tema porque aunque no quiera todo terminó. G7/F#

G4      3X0013
C9      032030
D9      X00230
Em7      022030
Am/G      002213
C7      X32310
G1      320030
Em/F#      022002
Em/G      022003
Bm1      X24430
Bm*      779987
C/G      X32013
D*      X00235
G7*      320000
D9*      200230
E*      024000
E1      052000
G7/F#      320002

            
            
Suggest correction
Creating personal tab
Creating personal tab
You can edit any tab online and save it as your Personal.

You can edit, replace or remove any tab part or add personal notes – all changes will be seen only by you.

Personal tabs can be accessed anytime from any device, even offline.
Learn more »
Give kudos to tab author, rate the tab!
1 2 3 4 5
comments
print report bad tab
guest
Wanna post a correction for this tab? Suggest correction