Oops, an error
Loading. Please wait.

Juro tab

version 5
version 5
19 views 1 this week
no commentswrite comment
1 2 3 4 5
3 more votes to show rating
add to favorites
×
Save as Personal and add changes to this tab that will be seen only by you. Learn more ›
×
You can save this tab as Personal to edit and correct it or add notes. All changes will be seen only by you. Learn more »
launch autoscroll
font size
0
reset
how to read this tab
guitar tuner
edit
Autoscroll
slow
fast
+/-
esc
set tempo
stop
Esta canción es de Edgar Oceransky, esto es para los
Peones k crean que es de Delgadillo, en fin aki
esta la trascripción.

Esta rola sta super bien hecha, no le falta
ni le sobra nada  O.K.?
c la quiero ddicar a mis amigs trovadores, Danny, L Angel
Franco, Aldito, Rodrigo, Duend, Gerald y a el buen MOY!!, entre otros........

Atte:  Chris Fortier jijijiijiji


- LLeva capo n el 1er trast
- h: hammer
- p: pull off

Intro
e:---------------------------------------------------|
b:---3-1-0---------------------------------0---------|
g:--0------2-0---0---0-2---0---0---0---0-2---2-0-----|
D:-0-----------4---4-----4---4---4---4-----------4---|
A:---------------------------------------------------|
E:-------------------------0-------------------------|

e:-------------------------------------------------------|
b:--------3-1-0---------------------------------0--------|
g:-------0------2-0---0---0-2---0---0---0---0-2---2-0----|
D:------0-----------4---4-----4---4---4---4-----------4--|
A:-0-----------------------------------------------------|
E:---3--------------------------0------------------------|


--------------Aki empieza a kantar--------------------
   G1                     Em          Em/F#    Em/G
e:-----0----------0------------------0---2-----3-0----------|
b:---------3----------3----------0-----0---0-------0---0----|
g:-------0----------0----------0---0---------0-------0------|
D:---0----------0------------2------------------------------|
A:-------------------------2--------------------------------|
E:-3----------3----------0----------------------------------|
Juro que no vuelvo a hablar del tema
                        porque aun que no quiera todo termino

   G1                     Em          Em/F#    Em/G
e:-----0----------0------------------0---2-----3-0----------|
b:---------3----------3----------0-----0---0-------0---0----|
g:-------0----------0----------0---0---------0-------0------|
D:---0----------0------------2------------------------------|
A:-------------------------2--------------------------------|
E:-3----------3----------0----------------------------------|
Cada quien mañana pegara la vuelta
                         Hacia su destino sin decir adios

  Em               Bm            Am/G                Bm*

e:-------------0-----------0------------3p0-0------------7--------|
b:---------0-----0-------3---0----------1-----1-------------------|
g:-------0---0---------4-------0------2---------0------9-----9----|
D:-----2-------------4--------------2----------------9-----9---9--|
A:---2-------------2--------------0----------------7--------------|
E:-0--------------------------------------------------------------|
  Juro que no vuelves a escuchar mi voz
                                 no importa que estalle todo mi interior

   Em               Bm            C/G              D*
e:-------------0-----------0------------3p0-0------------5--------|
b:---------0-----0-------3---0----------1-----1--------3---3---0--|
g:-------0---0---------4-------0------0---------0----2-------2----|
D:-----2-------------4--------------2--------------0--------------|
A:---2-------------2--------------3-------------------------------|
E:-0--------------------------------------------------------------|
  Aunque yo no entienda esta situación
                                 esta historia acaba porque nunca comenzó

   G1         G7
e:-------------1-----0------------------|
b:-----3---3-----0-----0---3---0h1------|
g:-------0---0-----0-----0---0----------|
D:---0----------------------------------|
A:--------------------------------------|
E:-3-----------3-----3------------------|

    C/G       D9            G1
e:---3-----------------0---------0-----------0---------|
b:---1---1----------3---3------3---3---3---3---3-------|
g:-----0---0----2--------------0-----0-0-0-------0-----|
D:----------------0----------0-------------------------|
A:-3---------------------------------------------------|
E:------------2------------3---------------------------|
  Te doy la espalda empiezo a andar

     C/G              D*            G1
e:-----------3--------------5--------------0-----------0--------|
b:-----------1-1---1------3---3---0------3---3---3---3---3------|
g:---------------0------2-------2--------0-----0-0-0-------0----|
D:--------------------0----------------0------------------------|
A:-0h2h3---3----------------------------------------------------|
E:----------------------------------3---------------------------|
          Pero no dejo de pensar

     C/G               D*             Em*
e:-----------3--------------5--------------------0------------------|
b:-----------1-1---1------3---3---0----------0-----0-----0-----0----|
g:---------------0------2-------2----------0---0-------0-----0-----0|
D:--------------------0------------------4-----------4-----2-----0--|
A:-0h2h3---3---------------------------2----------------------------|
E:-----------------------------------0------------------------------|
          Prendo un recuerdo para evaporar tu amor

   C/G                 D9
e:-------3p0-0------------0-------|
b:-------1-----1------------3-----|
g:-----0---------0----------------|
D:---2------------------0---------|
A:-3------------------------------|
E:--------------------2-----------|
              Y mas se inflama el corazóoooooooon


(Intro)
   G1         G1         Em          Em/F#   Em/G
e:-----0----------0------------------0---2----3-0-----------|
b:---------3----------3----------0-----0---0-------0---0----|
g:-------0----------0----------0---0---------0-------0------|
D:---0----------0------------2------------------------------|
A:-------------------------2--------------------------------|
E:-3----------3----------0----------------------------------|
  Juro que no vuelves a mirar mi cara
                        mis manos hurgando x tu pantalón

 G1                    Em          Em/F#     Em/G
e:-----0----------0------------------0---2-----3-0----------|
b:---------3----------3----------0-----0---0-------0---0----|
g:-------0----------0----------0---0---------0-------0------|
D:---0----------0------------2------------------------------|
A:-------------------------2--------------------------------|
E:-3----------3----------0----------------------------------|
  No voy a causart mas de 2 problemas
                        si es que alguna vez escuchas mi canción

    Em            Bm              Am/G              Bm*
e:-------------0-----------0------------3p0-0------------7--------|
b:---------0-----0-------3---0----------1-----1-------------------|
g:-------0---0---------4-------0------2---------0------9-----9----|
D:-----2-------------4--------------2----------------9-----9---9--|
A:---2-------------2--------------0----------------7--------------|
E:-0--------------------------------------------------------------|
  Juro que no vuelves a escuchar mi voz
                                no importa que estalle todo mi interior

    Em              Bm              C/G             D*
e:-------------0-----------0------------3p0-0------------5--------|
b:---------0-----0-------3---0----------1-----1--------3---3---0--|
g:-------0---0---------4-------0------0---------0----2-------2----|
D:-----2-------------4--------------2--------------0--------------|
A:---2-------------2--------------3-------------------------------|
E:-0--------------------------------------------------------------|
  Auque yo no entienda esta situación
                                 esta historia acaba porque nunca empezo

     G1        G7
e:-------------1-----0------------------|
b:-----3---3-----0-----0---3---0h1------|
g:-------0---0-----0-----0---0----------|
D:---0----------------------------------|
A:--------------------------------------|
E:-3-----------3-----3------------------|


 C/G       D9              G1
e:---3-----------------0---------0-----------0---------|
b:---1---1----------3---3------3---3---3---3---3-------|
g:-----0---0----2--------------0-----0-0-0-------0-----|
D:----------------0----------0-------------------------|
A:-3---------------------------------------------------|
E:------------2------------3---------------------------|
  Te doy la espalda empiezo a andar

     C/G              D*            G1
e:-----------3--------------5--------------0-----------0--------|
b:-----------1-1---1------3---3---0------3---3---3---3---3------|
g:---------------0------2-------2--------0-----0-0-0-------0----|
D:--------------------0----------------0------------------------|
A:-0h2h3---3----------------------------------------------------|
E:----------------------------------3---------------------------|
          Pero no dejo de pensar

     C/G               D*             Em*
e:-----------3--------------5--------------------0------------------|
b:-----------1-1---1------3---3---0----------0-----0-----0-----0----|
g:---------------0------2-------2----------0---0-------0-----0-----0|
D:--------------------0------------------4-----------4-----2-----0--|
A:-0h2h3---3---------------------------2----------------------------|
E:-----------------------------------0------------------------------|
          Prendo un recuerdo para evaporar tu amor

    C/G                D9      G1                    Em        Em/G    Em/G        G7/F#
e:-------3p0-0-----------0--------0---------0------------------0---3-----2-0----------2-^|
b:-------1-----1-----------2----------3---------3----------0-----0---0-------0---0----0-^|
g:-----0---------0------------------0---------0----------0---0---------0-------0------0-^|
D:---2-----------------0--------0---------0------------2------------------------------0-^|
A:-3-------------------------------------------------2--------------------------------2-^|
E:-------------------2--------3---------3----------0----------------------------------3-^|
               Y mas se inflama el corazón
                             Juro que no vuelvo a hablar del tema
                                                  porque aunque no quiera todo termino.


D9      000230
Am      002210
Am/G      002213
G1      320030
Em      022000
Em/F#      022002
Em/G      022003
Bm      224432
Bm*      779987
C/G      032013
D*      000235
E*      024000
G7/F#      320002

Comentarios, correcciónes, peticiónes, etc.....

            
            
Suggest correction
Creating personal tab
Creating personal tab
You can edit any tab online and save it as your Personal.

You can edit, replace or remove any tab part or add personal notes – all changes will be seen only by you.

Personal tabs can be accessed anytime from any device, even offline.
Learn more »
Give kudos to tab author, rate the tab!
1 2 3 4 5
comments
print report bad tab
guest
Wanna post a correction for this tab? Suggest correction