Oops, an error
Loading. Please wait.

La Balada Del Reflejo tab

version 1
version 1

Whole song

37 views 1 this week
no commentswrite comment
1 2 3 4 5
3 more votes to show rating
add to favorites
×
Save as Personal and add changes to this tab that will be seen only by you. Learn more ›
×
You can save this tab as Personal to edit and correct it or add notes. All changes will be seen only by you. Learn more »
launch autoscroll
font size
0
reset
how to read this tab
guitar tuner
edit
Autoscroll
slow
fast
+/-
esc
set tempo
stop
Aquí les vá este señor rolón del disco de Feb. 13 del
buen Nando Delgadillo. A la raza que me ha hecho el favor
de escribirme con sus peticiones, les pido una disculpa.
Ésta es un petición mía que tenía muy resagada antes que
cualesquiera. Les recomiendo (como siempre), saquen la 
canción y los tabs como se muestran (sin capo) ya dominada 
la rola, si la quieran cantar en el tono del autor, pongan
 el capo en el segundo traste y listo!


ACORDES:
Dm    X00231
Dm/C  X30231
Am    002210
A7    002020
A7*   002023
G     320003
G+4   320013
Bb    113331
F     133211
Fsus  133311


NOTA: 5° en el hexagrama significa 5to traste
INTRO:

    Dm              A7              Dm              G+4
  6    1          6    1          6    1          6    1
 \______/        \______/        \______/        \______/
5°111111          ||||||          |||||1          ||||1|
  ||||2|          ||1|2|          |||2||          |2||||
  ||34||          |||||4          ||||3|          3|||||
  ||||||          ||||||          ||||||          ||||||

E---------------|---------------|---------------|--3------------|
A--5------------|--0------------|---------------|---------------|
D-----7----7----|-----2----2----|--0------------|-----0---------|
g-------7-------|-------0-------|-----2----2---0|--------0----0-|
b-------6----6--|-------2----2--|-------3-------|----------1h0--|
e------------5--|------------3--|------------1--|---------------|


    Dm            Asusp2            Dm             
  6    1          6    1          6    1          
 \______/        \______/        \______/        
  |||||1          ||||||          |||||1          
  |||2||          ||1|2|          |||2||          
  ||||3|          ||||3|          ||||3|          
  ||||||          ||||||          ||||||          

E---------------|---------------|---------------|---------------|
A---------------|--0------------|---------------|---------------|
D--0------------|---------------|--0------------|--0------------|
g-----2---------|-----0----0---0|-----2----2----|---------------|
b-------3------3|-------3----2--|-------3------3|---------------|
e----------1h0--|--0------------|------------1--|--1------------|


    Dm                              G               A7
  6    1          6    1          6    1          6    1
 \______/        \______/        \______/        \______/
  |||||1          ||||||          ||||||          ||||||
  |||2||          ||||||          ||||||          ||1|2|
  ||||3|          ||||||          2|||34          ||||||
  ||||||          3|||||          ||||||          ||||||

E---------------|--4------------|--2------------|---------------|
A---------------|---------------|---------------|--0------------|
D--0------------|---------------|---------------|-----2---------|
g-----2---------|---------------|-----0-------0-|----------0----|
b-------3------0|-----0----0----|-------3---3---|-------2-------|
e----------1h0--|-------0----0--|---------3-----|------------0--|


     Dm
Yo habito el interior
 Am               G                 
del espejo donde detendra 

su tiempo todo aquel
Dm                    
que se componga y que 
 Am       Dm
pose para él


   Dm               G+4
  6    1          6    1
 \______/        \______/
  |||||1          ||||1| 
  |||2||          |2|||| 
  ||||3|          3||||| 
  ||||||          |||||| 

E---------------|--3------------|
A---------------|---------------|
D--0------------|-------------0-|
g-----2--0h2---2|-----0-----0---|
b------------3--|-------1h0-----|
e---------------|---------------|


   Dm   
Inmerso en mi labor
 Am       
limpio el otro lado 
  C               G
y éste mi paño mejor
Bb            F       A7
 que brillos logra hacer


 Bb                     
Desde un pálido oro viejo 
          F
hasta un latido de sol
 C                  
desde un opaco discreto al 
  G+4 G G+4   G
nublado interior


Bb                 A7 
para jugar a mi antojo


    A7            \     
  6    1           |
 \______/          |
  ||||||           |
  ||1|2|           |
  ||||||            \ INTRO II
  ||||||            /
                   |
E---------------|  |
A---------------|  |
D--2----3----5--|  |
g----0----0-----|  |
b--2----3----5--|  |
e---------------| /


Dm                  Dm/C
cual abeja en el jardín
 Bb                A7*
de la luna de mi espejo 
     Dm
sin fin


    Dm              C               G               D
  6    1          6    1          6    1          6    1
 \______/        \______/        \______/        \______/
  |||||1          ||||1|          ||||1|          ||||||
  |||2||          ||2|||          |2||||          |||1|2
  ||||3|          |3||||          3|||4|          ||||3|
  ||||||          ||||||          ||||||          ||||||

E---------------|---------------|--3------------|---------------|
A---------------|--3------------|---------------|---------------|
D--0------------|---------------|---------------|--0------------|
g-----2--0h2----|----0----------|----------2h0--|-----2---------|
b------------3--|------1--3---1-|--3--1h0-------|--------3------|
e---------------|-----------0---|---------------|--------2------|


 Dm
Guardo en el cuarto encantado 
       C
mi ventana principal
Bb                          Fsus  F
un mundo que nadie viene a tocar


 C               
País de las ilusiones 
        G+4           G
del ensueño y del quizás
Bb                               
reinos que ya no 
                F   A7
se anhelan nombrar


INTRO II


 Dm                    
Sé las sustancias con 

que se hacen los sueños
  C
que siempre serán
      Am                           G
y sé las palabras con que despertarán


    G                             \     
  6    1                           |
 \______/                          |
  ||||||                           |
  ||||||                           |
  3|||||                            \ INTRO III
  ||||||                            /
                                   |
E--3------------|---------------|  |
A---------------|---------------|  |
D------0h2--2h3-|--3h2--2h0--0h2|  |
g----0----------|---------------|  |
b------0h1--1h3-|--3h1--1h0--0h1|  |
e---------------|---------------| /


Bb                   
sé volver sobre los pasos 
      F
en pos de lo que se fué
     C                
o volar allá donde 
            Am
yo nunca veré


    Am                            \     
  6    1                           |
 \______/                          |
  ||||1|                           |
  ||23||                           |
  ||||4|                            \ INTRO IV
  ||||||                            /
                                   |
E---------------|---------------|  |
A--0------------|--0------------|  |
D----2----2----2|-----2----2----|  |
g------2----2---|-------2----2--|  |
b------3----1---|-------1----3--|  |
e---------------|---------------| /


 Dm                  
Luna de mis noches tristes 
     C
luna de mi vanidad
      Am
luna de mi vida
                G
de íntima claridad

INTROIII


Bb              A7
artilugio del acaso

INTROII

   Dm             Dm/C
espejo de mi corazón
 Bb                    A7    
me enseñaste a ver desde tu
     Dm
prisión
                                    cejilla arqueada
                                           |
    Dm             Dm/C            Dm/Bb   |        A
  6    1          6    1          6    1   |      6    1
 \______/        \______/        \______/  |     \______/
  |||||1          |||||1          |1|||1 E---------------|---------------|---------------|--------------||
A---------------|--3------------|--1------------|--0-----------||
D.-0------------|---------------|---------------|-------------.||
g.----2--0h2----|-----2--0h2----|-----2--0h2----|-----2--0h2--.||
b------------3--|------------3--|------------3--|------------2-||
e------------1--|------------1--|------------1--|------------0-||


      Dm     
Yo habito el interior
 Am               G                  
del espejo donde detendrá

su tiempo todo aquel
  Dm
que se componga 
       A7       Dm
y que pose para el

   Dm               G+4
  6    1          6    1
 \______/        \______/
  |||||1          ||||1| 
  |||2||          |2|||| 
  ||||3|          3||||| 
  ||||||          |||||| 

E---------------|--3------------|
A---------------|---------------|
D--0------------|-------------0-|
g-----2--0h2---2|-----0-----0---|
b------------3--|-------1h0-----|
e---------------|---------------|


    Dm 
Yo se de mi labor
Am                
la de jugar en el 
  C                 G
tiempo y mi paño mejor
Bb          A7      Dm       
que brillos sabe hacer


    Dm              A7              Dm              G
  6    1          6    1          6    1          6    1
 \______/        \______/        \______/        \______/
5°111111          ||||||          |||||1          ||||||
  ||||2|          ||1|2|          |||2||          ||||||
  ||34||          |||||4          ||||3|          2|||34
  ||||||          ||||||          ||||||          ||||||

E---------------|---------------|---------------|--3------------|
A--5------------|--0------------|---------------|---------------|
D-----7----7----|-----2----2----|--0------------|---------------|
g-------7-------|-------0-------|-----2----2----|-----0----0----|
b-------6----6--|-------2----2--|-------3------3|-------3-------|
e------------5--|------------3--|------------1--|------------3--|


    Dm            Asusp2            Dm             
  6    1          6    1          6    1          
 \______/        \______/        \______/        
  |||||1          ||||||          |||||1          
  |||2||          ||1|2|          |||2||          
  ||||3|          ||||3|          ||||3|          
  ||||||          ||||||          ||||||          

E---------------|---------------|---------------|---------------|
A---------------|--0------------|---------------|---------------|
D--0------------|---------------|--0------------|--0------------|
g-----2---------|-----0----0----|-----2---2--0h2|----2----------|
b-------3------3|-------3----2--|--3----3-------|------3--------|
e----------1h0--|--0------------|---------------|--------1------|


Que se diviertan!!!
Saludox!

            
            
Suggest correction
Creating personal tab
Creating personal tab
You can edit any tab online and save it as your Personal.

You can edit, replace or remove any tab part or add personal notes – all changes will be seen only by you.

Personal tabs can be accessed anytime from any device, even offline.
Learn more »
Give kudos to tab author, rate the tab!
1 2 3 4 5
comments
print report bad tab
guest
Wanna post a correction for this tab? Suggest correction