Oops, an error
Loading. Please wait.

Visiones De La Muerte tab

version 1
version 1

Whole song

44 views 1 this week
no commentswrite comment
1 2 3 4 5
3 more votes to show rating
add to favorites
×
Save as Personal and add changes to this tab that will be seen only by you. Learn more ›
×
You can save this tab as Personal to edit and correct it or add notes. All changes will be seen only by you. Learn more »
launch autoscroll
font size
0
reset
how to read this tab
guitar tuner
edit
Autoscroll
slow
fast
+/-
esc
set tempo
stop
E|---------------|------|
B|---------------|------|
G|-11---11---11--|-11---|
D|---------------|------|
A|-----------X2--|------|
E|---------------|------|

TODO DOS VECES
E|---------------------------------------
B|---------------------------------------
G|---------------------------------------
D|---------------------------------------
A|-7-8-7-5-7-8-7-10-7---8-7-5-7-8-7-10-7-
E|---------------------------------------
                                       NOTA FINAL
E-------------------------------------|---|
B-------------------------------------|---|
G-------------------------------------|---|
D-------------------------------------|---|
A-5-6-5-3-5-6-5-8-5--6-5-3-5-6-5-8-5--|-8-|
E-------------------------------------|---|


VERSO: Cesede signos vitales...
E|---------------------------------------------------------|
B|---------------------------------------------------------|
G|-66-XXXX-8-9-8--66-XXXX-8-9-8--66-XXXX--8-8-9-8--66-XXXX-|
D|-66-XXXX-8-9-8--66-XXXX-8-9-8--66-XXXX--8-8-9-8--66-XXXX-|
A|-44-XXXX-6-7-6--44-XXXX-6-7-6--44-XXXX--6-6-7-6--44-XXXX-|
E|---------------------------------------------------------|

Me golpean en el pecho y me quieren regresar...
E|---------------------------------------|
B|---------------------------------------|
G|-88-9-8--88-9-8--88-11111111-10101010--|
D|-88-9-8--88-9-8--88-11111111-10101010--|  X2
A|-66-7-6--66-7-6--66-9-9-9-9--8-8-8-8---|
E|---------------------------------------|

VERSO: Y ahora yo no lo entiendo...
E|---------------------------------------------------------|
B|---------------------------------------------------------|
G|-66-XXXX-8-9-8--66-XXXX-8-9-8--66-XXXX--8-8-9-8--66-XXXX-|
D|-66-XXXX-8-9-8--66-XXXX-8-9-8--66-XXXX--8-8-9-8--66-XXXX-|
A|-44-XXXX-6-7-6--44-XXXX-6-7-6--44-XXXX--6-6-7-6--44-XXXX-|
E|---------------------------------------------------------|


No te vayas, no te mueras por favor regresa ya...
E|---------------------------------------|
B|---------------------------------------|
G|-88-9-8--88-9-8--88-11111111-10101010--|
D|-88-9-8--88-9-8--88-11111111-10101010--|  X2
A|-66-7-6--66-7-6--66-9-9-9-9--8-8-8-8---|
E|---------------------------------------|


CORO: Y yo, y yo ya no quiero regresar...
E|------------------------------------------------|
B|------------------------------------------------|
G|----------66-6-5555--88888888-1111-11-10101010--|
D|-88888888-66-6-5555--88888888-1111-11-10101010--| X3
A|-88888888-44-4-3333--66666666-9-9--9--8-8-8-8---|
E|-66666666---------------------------------------|


VERSO: Instantes de fríos envolventes...
E|---------------------------------------------------------|
B|---------------------------------------------------------|
G|-66-XXXX-8-9-8--66-XXXX-8-9-8--66-XXXX--8-8-9-8--66-XXXX-|
D|-66-XXXX-8-9-8--66-XXXX-8-9-8--66-XXXX--8-8-9-8--66-XXXX-|
A|-44-XXXX-6-7-6--44-XXXX-6-7-6--44-XXXX--6-6-7-6--44-XXXX-|
E|---------------------------------------------------------|

Es mi hijo, es mi hermano no tenía que pasar...
E|---------------------------------------|
B|---------------------------------------|
G|-88-9-8--88-9-8--88-11111111-10101010--|
D|-88-9-8--88-9-8--88-11111111-10101010--|  X2
A|-66-7-6--66-7-6--66-9-9-9-9--8-8-8-8---|
E|---------------------------------------|

VERSO: Rosarios, bóvedas y tumbas...
E|---------------------------------------------------------|
B|---------------------------------------------------------|
G|-66-XXXX-8-9-8--66-XXXX-8-9-8--66-XXXX--8-8-9-8--66-XXXX-|
D|-66-XXXX-8-9-8--66-XXXX-8-9-8--66-XXXX--8-8-9-8--66-XXXX-|
A|-44-XXXX-6-7-6--44-XXXX-6-7-6--44-XXXX--6-6-7-6--44-XXXX-|
E|---------------------------------------------------------|


Ese cuerpo no sepulten por favor hay que esperar...
E|---------------------------------------|
B|---------------------------------------|
G|-88-9-8--88-9-8--88-11111111-10101010--|
D|-88-9-8--88-9-8--88-11111111-10101010--|  X2
A|-66-7-6--66-7-6--66-9-9-9-9--8-8-8-8---|
E|---------------------------------------|


CORO: Y ellos por años en mi tumba me verán...
E|------------------------------------------------|
B|------------------------------------------------|
G|----------66-6-5555--88888888-1111-11-10101010--|
D|-88888888-66-6-5555--88888888-1111-11-10101010--| X
A|-88888888-44-4-3333--66666666-9-9--9--8-8-8-8---|
E|-66666666---------------------------------------|

E|---------------------------------------------------------------|
B|---------------------------------------------------------------|
G|----------66-6-5555--88888888---88888888---88888888---8------8-|
D|-88888888-66-6-5555--88888888-8-88888888-8-88888888-8-8----8-8-|
A|-88888888-44-4-3333--66666666-8-66666666-8-66666666-8-6----8-6-|
E|-66666666---------------------6----------6----------6------6---|


ACORDES:
E|--x---x---x---x---x---x----|
B|--x---x---x---x---x---x----|
G|--x---6---5---8---10--11---|
D|--8---6---5---8---10--11---|
A|--8---4---3---6---8---9----|
E|--6---x---x---x---x---x----|
   A#5 C#5  C5 D#5  F5 F#5

            
            
Suggest correction
Creating personal tab
Creating personal tab
You can edit any tab online and save it as your Personal.

You can edit, replace or remove any tab part or add personal notes – all changes will be seen only by you.

Personal tabs can be accessed anytime from any device, even offline.
Learn more »
Give kudos to tab author, rate the tab!
1 2 3 4 5
comments
print report bad tab
guest
Wanna post a correction for this tab? Suggest correction