Oops, an error
Loading. Please wait.

If I Had A Heart tab

version 1
version 1

Whole song

  • This song is from the YouTube Video - https://www.... Show more

Interactive

1,549 views 90 this week
1 commentread comment
1 2 3 4 5
x 3
add to favorites
×
Save as Personal and add changes to this tab that will be seen only by you. Learn more ›
×
You can save this tab as Personal to edit and correct it or add notes. All changes will be seen only by you. Learn more »
launch autoscroll
font size
0
reset
how to read this tab
guitar tuner
backing track
0:00
0:00
edit
Autoscroll
slow
fast
+/-
esc
set tempo
stop
Author
Difficulty
About this tab version
This song is from the YouTube Video - https://www.youtube.com/watch?v=TwFpnFUv9Cc - Notes are not exactly like in the video, just because of my personal preferences. Was this info helpful? Yes No
e|---------------------------|---------------------------------|----------------------------------|
B|---------------------------|-------------------0-------------|---------------------0------------|
G|---------------------------|---------------------2p0-2-------|-----------------------2p0-2------|
D|---------------------------|--2-2-2---2--0-2-----------0--2--|--2-2-2---2--0-0-2-----------0--2-|
A|-------------0-------------|--2-----2----0-0---0-------------|--2-----2----0-0-0---0------------|
E|--0---3--5-------3p0-3--0--|--0---------0--------3--------0--|--0---------0-------0--3--------0-|


e|-----------------------------|------------------------------------------|----------------------------------|
B|-----------------------------|------------------------------------------|---------------------0------------|
G|-----------------------------|--------------0-0-2---2--2-2---2--0-------|-------------0-0-2--2--2p0-2------|
D|-----------------------------|--2--2-2---2--0-0-2---2------2----0--2-2--|--2-2-2---2--0-0-2--2--------0--2-|
A|-------------0---------------|--2------2--------0---0-------------------|--2-----2--------0---0------------|
E|--0---3--5-------3p0-3--0-0--|--0----------0-------------------------0--|--0---------0----------3--------0-|


e|-----------------------------------------|----------------------------|
B|-----5--3p0-3----------------------------|----------------------------|
G|----4---------4p0-4--2--2-2---2--0-------|----------------------------|
D|---------------------2------2----0--0-2--|----------------------------|
A|---------------------0-------------------|-------------0--------------|
E|---0--------------------------------0-0--|--0---3--5-------3p0-3--0-0-|


e|---------------------------------3-4/5-5---7-------5--0-0-|
B|-----5-5-3---3----------3-3-----3-------------8-7---------|
G|----4------4---4-4--4-4-----4-4---------------------------|
D|-------------------------------------------7--0-----------|
A|-----------------------------------0----------------------|
E|---0----------------------------------------------------0-|


e|-------------------------------3-4/5-7-5---7-------5--0-0-|
B|---5-5-3---3----------3-3-----3---------------8-7---------|
G|---4-----4---4-4--4-4-----4-4-----------------------------|
D|-------------------------------------------7--0-----------|
A|---------------------------------0------------------------|
E|---0----------------------------------------------------0-|


e|-----------------------------|
B|-----------------------------|
G|-----------------------------|
D|-----------------------------| X2
A|--------------0--------------|
E|---0---3--5-------3p0-3--0---|



************************************

| p  Pull-off
| /  Slide up

************************************

            
            
Suggest correction
Creating personal tab
Creating personal tab
You can edit any tab online and save it as your Personal.

You can edit, replace or remove any tab part or add personal notes – all changes will be seen only by you.

Personal tabs can be accessed anytime from any device, even offline.
Learn more »
Give kudos to tab author, rate the tab!
1 2 3 4 5
comments
print report bad tab
1 comment total.

I love your variation of it, it can actually be applied to the others and you will be able to play the whole piece :) thank you very much!

guest
You may want to rate the tab now too:
select rating
Wanna post a correction for this tab? Suggest correction