Oops, an error
Loading. Please wait.

Barco A Venus tab

version 1
version 1

Whole song

by Fey
46 views 3 this week
no commentswrite comment
1 2 3 4 5
3 more votes to show rating
add to favorites
×
Save as Personal and add changes to this tab that will be seen only by you. Learn more ›
×
You can save this tab as Personal to edit and correct it or add notes. All changes will be seen only by you. Learn more »
launch autoscroll
font size
0
reset
how to read this tab
guitar tuner
edit
Autoscroll
slow
fast
+/-
esc
set tempo
stop
Fey - Barco A Venus

SaLuDos A La Gente De Nva. Rosita, Coah. ...... A las HBK... y a toda la raza.... Arriba el Norte!!!

Intro (guitarra 1):

(esto va con piano en la rola, pero aquí esta para tocarlo en guitarra)

e|--3--2--3--7--9-10--3--2--3--9--10---3--2--0--2--3--2--0--2--3--2--0--2---
B|--------------------------------------------------------------------------------------
G|--------------------------------------------------------------------------------------
D|--------------------------------------------------------------------------------------x3
A|--------------------------------------------------------------------------------------
E|--------------------------------------------------------------------------------------

Sabes que me gusta venus?

(lo siguiente va mientras terminas de tocar la tercera ves lo anterior)

intro (guitarra 2):    D - A - Am - Em - D

Am - E - E7 - D

Riff:
e|-------------------------------------------------------------------------
B|------------------------------------------------------------------------
G|------------------------------------------------------------------------x2
D|------------------------------------------------------------------------
A|--2--2-----0-----0-----2--2------0----0-----------------------------
E|---------2-----2-----2---------2------2----2---1--1-3--3-5--5-7---

E
Dices que siempre estas viajando
                     A
pero me estas engañando
                                             E
yo se que tu estas solo y que no sales de tu cuarto
                                             A
las luces de la calle te hacen daño cuando sales
                     E
por que tu mundo es otro mucho mas oscuro

  D     A
déjalo ya
             Am7            E             A
sabes que nunca has ido a venus en un barco
   D         A
quieres flotar
        Am7        E             A
pero lo único que haces es hundirte   Am - E - E7 - D


Riff:
e|-------------------------------------------------------------------------
B|------------------------------------------------------------------------
G|------------------------------------------------------------------------x2
D|------------------------------------------------------------------------
A|--2--2-----0-----0-----2--2------0----0-----------------------------
E|---------2-----2-----2---------2------2----2---1--1-3--3-5--5-7---

  E
Sabes que pasas torretida
                    A
 sin salir de tu mentira
                                          E
que muchos alimentan y que crece día a día
                                     A
la mafia te persigue y te coge la policía
                               E
te encierran y te sueltan y todos te dicen
  D     A
déjalo ya sabes que
 Am7            E            A
nunca has ido a venus en un barco
  D          A
quieres flotar
        Am7        E            A
pero lo único que haces es hundirte

Riff:
e|-------------------------------------------------------------------------
B|------------------------------------------------------------------------
G|------------------------------------------------------------------------x2
D|------------------------------------------------------------------------
A|--2--2-----0-----0-----2--2------0----0-----------------------------
E|---------2-----2-----2---------2------2----2---1--1-3--3-5--5-7---

  D     A             AM7             E
déjalo ya, sabes que nunca has ido a venus en un..
  D     A             AM7             E
déjalo ya, sabes que nunca has ido a venus en un..
D     A             AM7             E
déjalo ya, sabes que nunca has ido a venus en un..
  D     A             AM7             E            A
déjalo ya, sabes que nunca has ido a venus en un barco

A - Am - E  - D (x2)

Riff:
e|-------------------------------------------------------------------------
B|------------------------------------------------------------------------
G|------------------------------------------------------------------------x6
D|------------------------------------------------------------------------
A|--2--2-----0-----0-----2--2------0----0-----------------------------
E|---------2-----2-----2---------2------2----2---1--1-3--3-5--5-7---

Bueno ... Eso es todo.. espero que les guste ... y si ven algún error o 
algo por  el estilo, escríbanme para corregirla....     CaRoLiNa =HBK= ............

            
            
Suggest correction
Creating personal tab
Creating personal tab
You can edit any tab online and save it as your Personal.

You can edit, replace or remove any tab part or add personal notes – all changes will be seen only by you.

Personal tabs can be accessed anytime from any device, even offline.
Learn more »
Give kudos to tab author, rate the tab!
1 2 3 4 5
comments
print report bad tab
guest
Wanna post a correction for this tab? Suggest correction