Oops, an error
Loading. Please wait.

Cheap Beer bass

by FIDLAR
3,259 views 18 this week
3 commentsread comments
1 2 3 4 5
x 7
add to favorites
×
Save as Personal and add changes to this tab that will be seen only by you. Learn more ›
×
You can save this tab as Personal to edit and correct it or add notes. All changes will be seen only by you. Learn more »
launch autoscroll
font size
0
reset
guitar tuner
edit
Autoscroll
slow
fast
+/-
esc
set tempo
stop
Author
Difficulty
Artist: FIDLAR
Album: FIDLAR
Song: Cheap Beer
Bassist: Brandon Schwartzel
Tuning: Standart(EADG)

Intro(bass starts at 0:13)
G|------------------------------------------------|(x4)
D|------------------------------------------------|
A|--------------------------------------5-55------|
E|-00-3-000-3-000-3-000-3-000-3-000-3-0------5-55-|

Verse
G|------------------------------------------------|(x4)
D|------------------------------------------------|
A|--------------------------------------5-55------|
E|-00-3-000-3-000-3-000-3-000-3-000-3-0------5-55-|

Chorus
G|------------------------------------------------|(x2)
D|------------------------------------------------|
A|--------------------------------------5-55------|
E|-0----------0-----------0------------------5-55-|

Guitar Solo
G|------------------------------------------------|(x4)
D|------------------------------------------------|
A|--------------------------------------5-55------|
E|-00-3-000-3-000-3-000-3-000-3-000-3-0------5-55-|

End with
G|------------------------------------------------|
D|------------------------------------------------|
A|------------------------------------------------|
E|-0~---------------------------------------------|

Song Structure:
-Intro
-Verse
-Chorus
-Verse
-Chorus
-Guitar Solo
-Chorus
-End

Please rate and leave a coment! Thank you!

            
            
Suggest correction
Creating personal tab
Creating personal tab
You can edit any tab online and save it as your Personal.

You can edit, replace or remove any tab part or add personal notes – all changes will be seen only by you.

Personal tabs can be accessed anytime from any device, even offline.
Learn more »
comments
print report bad tab
3 comments total.
0 reply
pedrobraganca 35 Oct 19, 2015 01:10 PM

Olá, daqui fala o Bento. Sou eu que faço as honras de dar 5 estrelas a esta tab. Quero agradecer a minha mae e ao meu vizinho de baixo. Obrigado.

+2 reply
samlowry5611 10 Dec 25, 2016 02:02 PM

This is a crazy easy song but only if a pick is used. I cant handle doing it with fingers.

0 reply
jasminsilva808 10 Oct 19, 2017 02:50 AM

I use my thumb nail like a pick.... heh

guest
You may want to rate the tab now too:
select rating
Wanna post a correction for this tab? Suggest correction