Oops, an error
Loading. Please wait.

We Know bass

version 1
version 1

Whole song

  • Might not be perfect but it should give you a rough idea of it.
1,660 views 1 this week
no commentswrite comment
1 2 3 4 5
2 more votes to show rating
add to favorites
×
Save as Personal and add changes to this tab that will be seen only by you. Learn more ›
×
You can save this tab as Personal to edit and correct it or add notes. All changes will be seen only by you. Learn more »
launch autoscroll
font size
0
reset
guitar tuner
edit
Autoscroll
slow
fast
+/-
esc
set tempo
stop
-------------------------------------------------------------------------------
                            We Know - Fifth Harmony
-------------------------------------------------------------------------------
Tabbed by: Nacho Ramos
E-mail: nacho.rock.cabj@gmail.com

Tuning: Standard (EADG)

As it we couldn't listen to the studio version yet, it made it very hard to make
this tab, I had to listen to this song, literally, 52 times in different live
versions, hope you guys like it.


Intro and Verse 1 x5
G|---------------------------------------------------------------------------|
D|---------------------------------------------------------------------------|
A|3---3---2---2--------------------------------------------------------------|
E|---3-------3---------------------------------------------------------------|

Verse 2 x2
G|---------------------------------------------------------------------------|
D|---------------------------------------------------------------------------|
A|-----------------3---------------------------------------------------------|
E|4--4--6----3--3------------------------------------------------------------|

Pre-chorus 1 x2
G|---------------------------------------------------------------------------|
D|---------------------------------------------------------------------------|
A|-------------------3--3--3--6----------------------------------------------|
E|--------2-3--------------------3-------------------------------------------|

Chorus 1 x2
G|---------------------------------------------------------------------------|
D|---------------------------------------------------------------------------|
A|3--3--3--------------------------------------------------------------------|
E|---------024--4--4--246--6--6----3--3--3/----------------------------------|

Verse 3 x4
G|---------------------------------------------------------------------------|
D|---------------------------------------------------------------------------|
A|3---3---2---2--------------------------------------------------------------|
E|---3-------3---------------------------------------------------------------|

Verse 4 x2
G|---------------------------------------------------------------------------|
D|---------------------------------------------------------------------------|
A|-----------------3---------------------------------------------------------|
E|4--4--6----3--3------------------------------------------------------------|

Pre-chorus 2 x2
G|---------------------------------------------------------------------------|
D|---------------------------------------------------------------------------|
A|-------------------3--3--3--6----------------------------------------------|
E|--------2-3--------------------3-------------------------------------------|

Chorus 2 x2
G|---------------------------------------------------------------------------|
D|---------------------------------------------------------------------------|
A|3--3--3--------------------------------------------------------------------|
E|---------024--4--4--246--6--6----3--3--3/----------------------------------|

Outro
G|---------------------------------------------------------------------------|
D|---------------------------------------------------------------------------|
A|----------------------3--3--6----------------------------------------------|
E|-------------------------------3-------------------------------------------|


| /  slide up
| \  slide down
| h  hammer-on
| p  pull-off
| ~  vibrato
| +  harmonic
| x  Mute note
===============================================================================

            
            
Suggest correction
Creating personal tab
Creating personal tab
You can edit any tab online and save it as your Personal.

You can edit, replace or remove any tab part or add personal notes – all changes will be seen only by you.

Personal tabs can be accessed anytime from any device, even offline.
Learn more »
Give kudos to tab author, rate the tab!
1 2 3 4 5
comments
print report bad tab
guest
You may want to rate the tab now too:
select rating
Wanna post a correction for this tab? Suggest correction