Oops, an error
Loading. Please wait.

Everyone Needs A Nemesis tab

version 1
version 1

Whole song

Interactive

1,538 views 1 this week
1 commentread comment
1 2 3 4 5
x 3
add to favorites
×
Save as Personal and add changes to this tab that will be seen only by you. Learn more ›
×
You can save this tab as Personal to edit and correct it or add notes. All changes will be seen only by you. Learn more »
launch autoscroll
font size
0
reset
how to read this tab
guitar tuner
edit
Autoscroll
slow
fast
+/-
esc
set tempo
stop
Awesome song and no tabs as of yet so I thought I would. 99% sure it's correct but 
me if I'm wrong. Enjoy!

Intro

Riff 1
eb|------------------------------------------|
Bb|---------5-5-5-5-5-5-5-5-5-5-5-5----------|
Gb|------------------------------------------|
Db|--4-4-4-----------------------------------|
Ab|--4-4-4-----------------------------------|
Db|--4-4-4-----------------------------------|

Riff 2
eb|--------------------------------------------|
Bb|--------5-5-5-5-2-2-2-2---------------------|
Gb|------------------------2-2-2-2-------------|
Db|--4-4-4-------------------------------------|
Ab|--4-4-4-------------------------------------|
Db|--4-4-4-------------------------------------|

Riff 3
eb|---------------------------------------------|
Bb|---------8-8-8-8-----------------------------|
Gb|------------------6-6-6-6-7-7-7-7------------|
Db|-7-7-7---------------------------------------|
Ab|-7-7-7---------------------------------------|
Db|-7-7-7---------------------------------------|

Riff 4
eb|-----------------------------------------------|
Bb|-----------------------------------------------|
Gb|-----------------------------------------------|
Db|-4--0--4--0--4--------2-4----------------------|
Ab|-4--0--4--0--4--0-4-0--------------------------|
Db|-4--0--4--0--4---------------------------------|

Verse

Riff 1 PM

eb|------------------------------------------------------|
Bb|---10-1010101010-9-9-9--7--7--7--7--------------------|
Gb|----9--9-9-9-9-9-9-9-9--9--9--9--9--------------------|
Db|----7-------------------------------------------------|
Ab|------------------------------------------------------|
Db|------------------------------------------------------|

Riff 2

eb|-----------0---------|-----------------------------------|
Bb|--------10---0-------|--10-1010101010-9-9-9--9--9--9--9--|
Gb|----------------6h7--|---9--9-9-9-9-9-9-9-9--9--9--9--9--|
Db|-----7---------------|---7-------------------------------|
Ab|---------------------|-----------------------------------|
Db|---------------------|-----------------------------------|

Chorus

eb|-----------------------------------------|
Bb|-------------------5-7-------------------|
Gb|-----------------------------------------|
Db|----0----4----7---------6--7----9--------|
Ab|----0----4----7---------6--7----9--------|
Db|----0----4----7---------6--7----9--------|

In the second two choruses play the open chord instead of the 5-7 thing on the second 
times..sorry that's a bit confusing but listen to it and it'll make sense.

Bridge

eb|---------------------------------------|
Bb|---------5-5-5-------------------------|
Gb|---------------------------------------|
Db|--4-4-------------7-----9--------------|
Ab|--4-4-------------7-----9--------------|
Db|--4-4-------------7-----9--------------|

Solo

eb|------------------------------------------|
Bb|---10-10--9--7--5--10-10--9--7--5---------|
Gb|------------------------------------------|
Db|------------------------------------------|
Ab|------------------------------------------|
Db|------------------------------------------|

eb|---------------------------------------|
Bb|-----10--10--10---9--9--9--------------|
Gb|--11---11--11---11-11-11---------------|
Db|---------------------------------------|
Ab|---------------------------------------|
Db|---------------------------------------|

eb|---------------------------------------|
Bb|---5-5-5-2-2-2-2-7-7-7-9-9-9-10~-------|
Gb|---------------------------------------|
Db|---------------------------------------|
Ab|---------------------------------------|
Db|---------------------------------------|

eb|-----------------------|
Bb|-----------------------|
Gb|-----------------------|
Db|-4--0--4--0--4--0------|
Ab|-4--0--4--0--4--0------|
Db|-4--0--4--0--4--0------|

Outro

eb|-----------------------------------|----|
Bb|--------5-5-5-5-2-2-2-2------------|----|
Gb|------------------------2-2-2-2----|----|
Db|--4-4-4----------------------------|-0~-|
Ab|--4-4-4----------------------------|-0~-|
Db|--4-4-4----------------------------|-0~-|

            
            
Suggest correction
Creating personal tab
Creating personal tab
You can edit any tab online and save it as your Personal.

You can edit, replace or remove any tab part or add personal notes – all changes will be seen only by you.

Personal tabs can be accessed anytime from any device, even offline.
Learn more »
Give kudos to tab author, rate the tab!
1 2 3 4 5
comments
print report bad tab
1 comment total.
0 reply
MiniMusicMasta 120 Aug 26, 2008 10:01 AM

On the second part of the verse

eb|-----------0----------|-----------------------------------|
Bb|--------10---0--------|--10-1010101010-9-9-9--9--9--9--9--|
Gb|----------------4h6-0-|---9--9-9-9-9-9-9-9-9--9--9--9--9--|
Db|-----7----------------|---7-------------------------------|
Ab|----------------------|-----------------------------------|
Db|----------------------|-----------------------------------|


And on the chorus

eb|----------------------------------------|
Bb|-------------------5-7------------------|
Gb|----------------------------------------|
Db|----0----4----7-----------7----9--------|
Ab|----0----4----7-----------7----9--------|
Db|----0----4----7-----------7----9--------|


I think :D

guest
You may want to rate the tab now too:
select rating
Wanna post a correction for this tab? Suggest correction