Oops, an error
Loading. Please wait.

Wake Up tab

version 2
version 2

Whole song

Interactive

2,373 views 3 this week
no commentswrite comment
1 2 3 4 5
1 last vote to show rating
add to favorites
×
Save as Personal and add changes to this tab that will be seen only by you. Learn more ›
×
You can save this tab as Personal to edit and correct it or add notes. All changes will be seen only by you. Learn more »
launch autoscroll
font size
0
reset
how to read this tab
guitar tuner
edit
Autoscroll
slow
fast
+/-
esc
set tempo
stop
----------------------------------------------------------------------------
                             Wake Up - Fightstar
----------------------------------------------------------------------------
Tabbed by:Dan
Email:bacon_b@hotmail.com

Tuning: Drop D Flat, (low to High) Db Ab Db Gb Bb Eb


Intro and Verse 1

Guitar 1
|-5---------5---------5---------5-----------|
|---3-2-3-----3-2-3-----3-2-3-----3-2-3-----|
|-------------------------------------------|
|-------------------------------------------|
|-------------------------------------------|
|-------------------------------------------|

Guitar 2 with slight tremelo

|-------------------------------------------|
|-------------------------------------------|
|-11---------7----------2----------9--------|
|-9----------5----------0----------7--------|
|-9----------5----------0----------7--------|
|-9----------5----------0----------7--------|

Pre Chorus - same as verse but guitar 2 strums without tremelo and guitar 1 plays the verse 2 part.

Chorus
You can work out the strumming pattern yourselves
|------------------------------------------------|
|------------------------------------------------|
|-2----------7----------11---------7-------------|
|-0----------5----------9----------5-------------|
|-0----------5----------9----------5-------------|
|-0----------5----------9----------5-------------|

Verse 2

Guitar 1
|--------------------------------------------------------------------------|
|-10-10-10-10-10-10-10-10-8-8-8-8-8-8-8-8-7-7-7-7-7-7-7-7-5-5-5-5-5-5-5-5--|
|---7--7--7--7--7--7--7--7-7-7-7-7-7-7-7-7-7-7-7-7-7-7-7-7-7-7-7-7-7-7-7-7-|
|--------------------------------------------------------------------------|
|--------------------------------------------------------------------------|
|--------------------------------------------------------------------------|

Guitar 2

|--------------------------------------------------------------------------|
|--------------------------------------------------------------------------|
|-11-11-11---11-11-11---------11-11-11-----------7-7-7---7-7-7-------7-7-7-|
|-9--9--9----9--9--9----------9--9--9------------5-5-5---5-5-5-------5-5-5-|
|-9--9--9----9--9--9----------9--9--9------------5-5-5---5-5-5-------5-5-5-|
|-9--9--9----9--9--9----------9--9--9------------5-5-5---5-5-5-------5-5-5-|

|-------------------------------------------------------------------------|
|-------------------------------------------------------------------------|
|-2-2-2---2-2-2--------2-2-2-----------------9-9-9---9-9-9--------9-9-9---|
|-0-0-0---0-0-0--------0-0-0-----------------7-7-7---7-7-7--------7-7-7---|
|-0-0-0---0-0-0--------0-0-0-----------------7-7-7---7-7-7--------7-7-7---|
|-0-0-0---0-0-0--------0-0-0-----------------7-7-7---7-7-7--------7-7-7---|

Pre Chorus- same as before

Chorus same but x2

bridge to outro

|---
|---
|-2-
|-0-  Both guitars hold
|-0-
|-0-

guitar 1 part with delay
|------------------------------------0----------------0-----|
|--------------------------------------3----------------3---|
|----------12--------------7--------------------------------|
|-------10--------------5-----------------------------------|
|----10--------------5------------0----------------0--------|
|-10--------------5-------------0----------------0----------|

Guitar 2 same tremelo effect as before
|-----------------------------------------------------------|
|-----------------------------------------------------------|
|-12-------------7--------------2---------------------------|
|-10-------------5--------------0---------------------------|
|-10-------------5--------------0---------------------------|
|-10-------------5--------------0---------------------------|


Distorted lead
|-----------------------------------------------------------|
|-----------------------------------------------------------|
|--7/9------11--4------4-4/7----7/9----9/11-----11/12-------|
|-----------------------------------------------------------|
|-----------------------------------------------------------|
|-----------------------------------------------------------|

Heavy Bit till end guitar 1
You can figure out the rhythm
|-----------------------------------------------------------|
|---------------------------3-------------------------------|
|---------------------------2-------------------------------|
|-10---------5--------------0-------------------------------|
|-10---------5--------------0-------------------------------|
|-10---------5--------------0-------------------------------|

Guitar 2

|-------------------------------------------------------------|
|-------------------------------------------------------------|
|-7--7---7-7-7-7/14-14-14---------7--7--7-7/9-9--9-9/11-11-11-|
|-x--x---x-x-x-x-x--x--x----X2----x--x--x-x-x-x--x-x-x--x--x--|
|-5--5---5-5-5-5-12-12-12---------5--5--5-5/7-7--7-7/9--9--9--|
|-------------------------------------------------------------|

little bit at the end

|----------------------------------------|
|-----------------------------3----------|
|--7/9--7/9/11--4------4------2----------|
|-----------------------------0----------|
|-----------------------------0----------|
|-----------------------------0----------|

Thats it i think, enjoy

            
            
Suggest correction
Creating personal tab
Creating personal tab
You can edit any tab online and save it as your Personal.

You can edit, replace or remove any tab part or add personal notes – all changes will be seen only by you.

Personal tabs can be accessed anytime from any device, even offline.
Learn more »
Give kudos to tab author, rate the tab!
1 2 3 4 5
comments
print report bad tab
guest
Wanna post a correction for this tab? Suggest correction