Oops, an error
Loading. Please wait.

Two Kinds bass

739 views 1 this week
no commentswrite comment
1 2 3 4 5
3 more votes to show rating
add to favorites
×
Save as Personal and add changes to this tab that will be seen only by you. Learn more ›
×
You can save this tab as Personal to edit and correct it or add notes. All changes will be seen only by you. Learn more »
launch autoscroll
font size
0
reset
guitar tuner
edit
Autoscroll
slow
fast
+/-
esc
set tempo
stop
Difficulty
Best played with a pick (as much as I detest picks on bass, this is a necessary evil). 
distortion, pump the low ends, and preferably Dr. round-wounds (I used hi beams, but you 
be good with lo-riders).
It's hard to get the tone identical to the recording, but if you work on equalizing it 
you'll have a nice sound.

G||--------------------------------|
D||--------------------------------|
A||--8----8--8--8--8--8--8--8-8-8--|
E||--------------------------------|

|--------------------|------------------------------|
|--7--7--7--7--7--7--|------------------------------|
|--------------------|------------------------------|
|--------------------|--10--10--10--15--15--15--15--|

|--------------------------------|
|--------------------------------|
|--8----8--8--8--8--8--8--8-8-8--|
|--------------------------------|

|--------------------|---------------------------------|
|--7--7--7--7--7--7--|--10----10-10--------------------|
|--------------------|---------------------------------|
|--------------------|-----------------15--15--15--15--|

Repeat indefinitely. Very simple song,  but fretting on the different strings is 
for this song in particular.

            
            
Suggest correction
Creating personal tab
Creating personal tab
You can edit any tab online and save it as your Personal.

You can edit, replace or remove any tab part or add personal notes – all changes will be seen only by you.

Personal tabs can be accessed anytime from any device, even offline.
Learn more »
Give kudos to tab author, rate the tab!
1 2 3 4 5
comments
print report bad tab
guest
Wanna post a correction for this tab? Suggest correction