Oops, an error
Loading. Please wait.
We have an official Hey Man Nice Shot tab made by UG professional guitarists. Check out the tab »
×
by Filter
45,747 views 21 this week
1 commentread comment
1 2 3 4 5
x 26
add to favorites
×
Save as Personal and add changes to this tab that will be seen only by you. Learn more ›
×
You can save this tab as Personal to edit and correct it or add notes. All changes will be seen only by you. Learn more »
launch autoscroll
font size
0
reset
guitar tuner
backing track
0:00
0:00
edit
Autoscroll
slow
fast
+/-
esc
set tempo
stop
"Hey Man Nice Shot" by Filter
from September 1995 Guitar for the Practicing Musician Magazine

"Dropped D Tuning"
      
      fdbk/amp noise
G:--------------------|
D:---|============|---|
A:--------------------|
D:--------------------|

                                                                  (x4)
G:---------------------------------------------------------------------|
D:*-------------------------------------------------------------------*|
A:*-------------------------------------------------------------------*|
D:---0-0-0-0-0-0-0-0-0-3-3-3-3-3-3-3-3-5-5-5-5-5-5-5-5-6-6-6-6-5-5-5---|
     >       >   >     >     >       >       >   >     >     >

                                                                    (x12)
G:----------------------------------------------------------------------|
D:*--------------------------------------------------------------------*|
A:*--------------------------------------------------------------------*|
D:--0-0-0-0-0-0-0-0-0-3-3-3-3-3-3-3-3-5-5-5-5-5-5-5-5----6-6-6-6-5-5-5--|
    >       >   >     >     >       >       >     >      >     >


G:---------------------------------------------------------------------------|
D:*--------------------------------------------------------------------------|
A:*--------------------------------------------------------------------------|
D:---0-10-12-0-10-12-0-10-12-0-10-12-0-10-12-0-0-10-9-0-10-9-0-10-9-0-10-9-0-|
       >  >    >  >    >  >    >  >    >  >      >  >   >  >   >  >   >  >


G:-------------------------------------------------------------------------|
D:------------------------------------------------------------------------*|
A:------------------------------------------------------------------------*|
D:10-9-0-0-5-7-0-5-7-0-5-7-0-5-7-0-5-7-0-0-5-3-0-5-3-0-5-3-0-5-3-0-5-3-0---|
  >  >     > >   > >   > >   > >   > >     > >   > >   > >   > >   > >


                                                                  (x4)
G:---------------------------------------------------------------------|
D:*-------------------------------------------------------------------*|
A:*-------------------------------------------------------------------*|
D:---0-0-0-0-0-0-0-0-0-3-3-3-3-3-3-3-3-5-5-5-5-5-5-5-5-6-6-6-6-5-5-5---|
     >       >   >     >     >       >       >   >     >     >

                                                                    (x12)
G:----------------------------------------------------------------------|
D:*--------------------------------------------------------------------*|
A:*--------------------------------------------------------------------*|
D:--0-0-0-0-0-0-0-0-0-3-3-3-3-3-3-3-3-5-5-5-5-5-5-5-5----6-6-6-6-5-5-5--|
    >       >   >     >     >       >       >     >      >     >


G:---------------------------------------------------------------------------|
D:*--------------------------------------------------------------------------|
A:*--------------------------------------------------------------------------|
D:---0-10-12-0-10-12-0-10-12-0-10-12-0-10-12-0-0-10-9-0-10-9-0-10-9-0-10-9-0-|
       >  >    >  >    >  >    >  >    >  >      >  >   >  >   >  >   >  >

                                                                      (x8)
G:-------------------------------------------------------------------------|
D:------------------------------------------------------------------------*|
A:------------------------------------------------------------------------*|
D:10-9-0-0-5-7-0-5-7-0-5-7-0-5-7-0-5-7-0-0-5-3-0-5-3-0-5-3-0-5-3-0-5-3-0---|
  >  >     > >   > >   > >   > >   > >     > >   > >   > >   > >   > >

            
            
Suggest correction
Creating personal tab
Creating personal tab
You can edit any tab online and save it as your Personal.

You can edit, replace or remove any tab part or add personal notes – all changes will be seen only by you.

Personal tabs can be accessed anytime from any device, even offline.
Learn more »
comments
print report bad tab
1 comment total.
0 reply
xMetalCutieMark 10 Apr 15, 2014 06:52 AM

Sounds about right to me! Great tabs!

guest
Wanna post a correction for this tab? Suggest correction