Oops, an error
Loading. Please wait.

Chinese Organ Thieves intro tab

by Finch
1,199 views 3 this week
1 commentread comment
1 2 3 4 5
3 more votes to show rating
add to favorites
×
Save as Personal and add changes to this tab that will be seen only by you. Learn more ›
×
You can save this tab as Personal to edit and correct it or add notes. All changes will be seen only by you. Learn more »
launch autoscroll
font size
0
reset
how to read this tab
guitar tuner
edit
Autoscroll
slow
fast
+/-
esc
set tempo
stop
This is my first tab I've been bothered to do. I've only got the intro, I'll try and tab 
rest out soon. Tune your strings half a step down and the low E string 1 and a half steps.

E-mail me: windehr0x@googlemail.com

Band: Finch
Track: Chinese Organ Thieves
Album: Finch (EP), 2008
Tuning: Drop Db

|----------------------------------------|
|----------------------------------------|
|-10---10---10---10---10-----------------|
|-10---10---10---10---10-----------------|
|-8----0----8----0----8------------------|
|----------------------------------------|

(x10) (x10) (x10) (x10) (once)

|-------------------------------------------|
|-------------------------------------------|
|-10---2---10---2---7-----------------------|
|-10---2---10---2---7-----------------------|
|-8----0---8----0---5-----------------------|
|-------------------------------------------| x2

(x8 each, but play last chord once). Guitar 2 plays this:

|----------------------------------------|
|----------------------------------------|
|----------------------------------------|
|-55555555-99999999-55555555-999999-9-9--|
|-55555555-99999999-55555555-999999-9-9--|
|-55555555-99999999-55555555-999999-9-9--|

|----------------------------------------|
|----------------------------------------|
|----------------------------------------|
|-----4h6p4------------------------------|
|-2-4-------4----------------------------|
|----------------------------------------|

All I've got for now. Enjoy! I think it's right, it works for me.

            
            
Suggest correction
Creating personal tab
Creating personal tab
You can edit any tab online and save it as your Personal.

You can edit, replace or remove any tab part or add personal notes – all changes will be seen only by you.

Personal tabs can be accessed anytime from any device, even offline.
Learn more »
Give kudos to tab author, rate the tab!
1 2 3 4 5
comments
print report bad tab
1 comment total.
0 reply
Shaunedy 282 Nov 10, 2008 11:36 AM

(I posted this tab btw, it was before I registered though :s)

I'll correct it, this sounds horribly wrong. Same strum patterns, just different and stuff, but don't play in Drop Db, no real need.

|-------------------------------------------|
|-------------------------------------------|
|-9-----------9-----------9-----------------|
|-9-----6-----9-----6-----9-----------------|
|-7-----6-----7-----6-----7-----------------|
|-------4-----------4-----------------------|

(x10) (x10) (x10) (x10) (once)

|-------------------------------------------|
|-------------------------------------------|
|-9------9-------6--------------------------|
|-9---6--9---6---6--------------------------|
|-7---6--7---6---4--------------------------|
|-----4------4------------------------------| x2

|-12----12----12--11----11----11------------| x2
|---12----12----12--12----12----12----------|
|-----13----13--------13----13--------------|
|-------------------------------------------|
|-------------------------------------------|
|-------------------------------------------|

(x8 each, but play last chord once). Guitar 2:

|----------------------------------------|
|----------------------------------------|
|------------------------------------6-6-|
|-22222222-666666-6543-22222222-6666-6-6-|
|-22222222-666666-6543-22222222-6666-4-4-|
|-00000000-444444-4321-00000000-4444-----|

|----------------------------------------|
|----------------------------------------|
|----------------------------------------|
|-----4h6p4------------------------------|
|-2-4-------4----------------------------|
|----------------------------------------|

guest
Wanna post a correction for this tab? Suggest correction