Oops, an error
Loading. Please wait.

Ender tab

version 2
version 2

Whole song

Interactive

by Finch
2,486 views 1 this week
1 commentread comment
1 2 3 4 5
2 more votes to show rating
add to favorites
×
Save as Personal and add changes to this tab that will be seen only by you. Learn more ›
×
You can save this tab as Personal to edit and correct it or add notes. All changes will be seen only by you. Learn more »
launch autoscroll
font size
0
reset
how to read this tab
guitar tuner
edit
Autoscroll
slow
fast
+/-
esc
set tempo
stop
tabbed by myspace.com/adamsisco.. check it
these tabs are correct.

DROP D TUNING

GUITAR ONE

INTRO/VERSES. remember every string is tuned half a step down

e-------------------------------------------------------------------|
b-------------------------------------------------------------------|
g-------------------------------------------------------------------|
d-4-44-44-44-4-44-4-44-44-555-5s66-6-66-66-66-6-66-6-66-66-5555-444-|
a-2-22-22-22-2-44-0-00-00-000-0-00-4-44-44-44-4-44-0-00-00-0000-000-|
D-----------------0-00-00-000-0-00-4-44-44-44-4-44-0-00-00-0000-000-|

e-------------------------------------------------------------------|
b-------------------------------------------------3-33-33-33333333--|
g----------------------------------------------65-2-22-22-22222222--|
d-4-44-44-44-4-44-4-44-44-555-5s66-6-66-66-666-44-0-00-00-00000000--|
a-2-22-22-22-2-44-0-00-00-000-0-00-4-44-44-444-44-0-00-00-00000000--|
D-----------------0-00-00-000-0-00-4-44-44-444-44-0-00-00-00000000--|

PRE CHORUS

e-------------------------------------------------------------------|
b--------------------------------3-33-33-3333-2-3-33-33-333333333---|
g-9-99-99-9999s11-7-77-77-777766-2-22-22-2222-2-2-22-22-222222222---|
d-7-77-77-7777s9--5-55-55-555555-0-00-00-0000-0-0-00-00-000000000---|
a-7-77-77-7777s9--5-55-55-555555-0-00-00-0000-0-0-00-00-000000000---|
d-7-77-77-7777s9--5-55-55-555555-0-00-00-0000-0-0-00-00-000000000---|

e-------------------------------------------------------------------|
b--------------------------------3-33-33-3333-2---------------------|
g-9-99-99-9999s11-7-77-77-777766-2-22-22-2222-2---------------------|
d-7-77-77-7777s9--5-55-55-555555-0-00-00-0000-0---------------------|
a-7-77-77-7777s9--5-55-55-555555-0-00-00-0000-0---------------------|
d-7-77-77-7777s9--5-55-55-555555-0-00-00-0000-0---------------------|

REPEAT THE VERSE

GO BACK TO THE PRE CHORUS

CHORUS/END:

e------------------------------------------------------------------|
b-------------------------------------------------3-33-33-3333333--|
g---------------------------------6-66-66-666-6-5-2-22-22-2222222--|
d4-44-44-444-5555-6-66-66-6666666-4-44-44-444-4-4-0-00-00-0000000--|
a2-22-22-222-3333-4-44-44-4444444-4-44-44-444-4-4-0-00-00-0000000--|
d---------------------------------4-44-44-444-4-4-0-00-00-0000000--|

repeat that till you go back to the pre chorus.
then play the verse again and then use a delay pedal to manipulate the looong pick slids 
does at the end. then take a grandfather clock and a bike. ride it over wet asphalt in 
background. oh and have a garbage can drumset.

heres the second guitar parts.

VERSE

e--------------------------------------------|
b--------------------------------------------|
g-7~~~~~~~~~~~~~~~~~~~~~~~~~~6~~~~~~~~~~~~~~~
d-9~~~~~~~~~~~~~~~~~~~~~~~~~~7~~~~~~~~~~~~~~~
a--------------------------------------------|
d--------------------------------------------|

let them ring during the verse and then play the pre chorus aswell.

during the chorus, play

e-----5---------5---------5---------5-------|
b-5h7---7~~-5h7---7---5h7---7~~-5h7---7-----|
g-------------------7-------------------7---|
d-------------------------------------------|
a-------------------------------------------|
d-------------------------------------------|

then advance to

e-10-0-9-0-7-----5---10-0-9-0-7-----5---------5---------5---------7-------|
b------------5h7---7------------5h7---7~~-5h7---7---5h7---7~~-5h7---7-----|
g-------------------------------------------------7-------------------7~~-|
d-------------------------------------------------------------------------|
a-------------------------------------------------------------------------|
d-------------------------------------------------------------------------|

fluctuate between them. figure the rest out by ear. peace.

            
            
Suggest correction
Creating personal tab
Creating personal tab
You can edit any tab online and save it as your Personal.

You can edit, replace or remove any tab part or add personal notes – all changes will be seen only by you.

Personal tabs can be accessed anytime from any device, even offline.
Learn more »
Give kudos to tab author, rate the tab!
1 2 3 4 5
comments
print report bad tab
1 comment total.
0 reply
goten18 31 Sep 02, 2009 04:47 PM

the verse you have is off. its played with two different endings. you only have one. other than that ****in awesome

guest
Wanna post a correction for this tab? Suggest correction