Oops, an error
Loading. Please wait.

Ink tab

version 2
version 2

Whole song

Interactive

by Finch
934 views 1 this week
no commentswrite comment
1 2 3 4 5
3 more votes to show rating
add to favorites
×
Save as Personal and add changes to this tab that will be seen only by you. Learn more ›
×
You can save this tab as Personal to edit and correct it or add notes. All changes will be seen only by you. Learn more »
launch autoscroll
font size
0
reset
how to read this tab
guitar tuner
edit
Autoscroll
slow
fast
+/-
esc
set tempo
stop
Author
-------------------------------------------------------------------------------
			     INK
				by Finch
					Say Hello to Sunshine (2005)
-------------------------------------------------------------------------------
Shall I just tab the whole album out? :P

Tabbed by: Shaunedy
Email: shadow-dirapon@hotmail.co.uk

Tuning: Drop D, Half-step down (eb Bb Gb Db Ab Db)

INTRO

Lead:

eb|-----------------------------------| Repeat
Bb|-----------------------------------|
Gb|--7---4--7---4-5--7---4--7---4-555-|
Db|-5-5-4--5-5-4--5-5-5-4--5-5-4--555-|
Ab|---------------3---------------333-|
Db|-----------------------------------|

VERSE

Rhythm:

eb|----------|------|------|------|----------|------|------|------|----|
Bb|----------|------|------|------|----------|------|------|------|----|
Gb|-10101010-|-9999-|-2222-|-7777-|-10101010-|-9999-|-2222-|-7777-|-19-|
Db|-x-x-x-x--|-xxxx-|-xxxx-|-xxxx-|-x-x-x-x--|-xxxx-|-xxxx-|-xxxx-|-x--|
Ab|-8-8-8-8--|-7777-|-0000-|-5555-|-8-8-8-8--|-7777-|-0000-|-5555-|-17-|
Db|----------|------|------|------|----------|------|------|------|----|
[x4 on all - so 16 chord plays]

Lead:

eb|---------------------------------------------------------------------------|
Bb|-6666666666666666----------------------------------------------------------|
Gb|-----------------9999999999999999------------------------------------------|
Db|---------------------------------10101010101010101010101010101010----------|
Ab|---------------------------------------------------------------------------|
Db|---------------------------------------------------------------------------|

eb|---------------------------------------------------------------------------|
Bb|---------------------------------------------------------------------------|
Gb|---------------------------------------------------------------------------|
Db|---------------------------------------------------------------------------|
Ab|-1212121212121212121212121212121212121212----------------------------------|
Db|---------------------------------------------------------------------------|

Palm mute the lead parts and repeat twice. They're 10's and 12's, by the way.

CHORUS

Rhythm:

eb|---------------------------------------------------------------------------|
Bb|---------------0-----------------------------------------------------------|
Gb|---------------0-----------------------------------------------------------|
Db|-33-000-33-000-2-33-000-33-000-888888888888888888888888-77777777-----------|
Ab|-33-000-33-000-2-33-000-33-000-888888888888888888888888-77777777-----------|
Db|-33-000-33-000-2-33-000-33-000-888888888888888888888888-77777777-----------|
					^^ A ^^	            ^ G# ^

eb|---------------------------------------------------------------------------|
Bb|---------------------------------------------------------------------------|
Gb|---------------------------------------------------------------------------|
Db|-33-000-33-000-22-33-000-33-000-55-33-000-33-000-22-33-000-33-000-55-------|
Ab|-33-000-33-000-22-33-000-33-000-77-33-000-33-000-22-33-000-33-000-77-------|
Db|-33-000-33-000-22-33-000-33-000-55-33-000-33-000-22-33-000-33-000-55-------|

POST-CHORUS

Lead:

eb|-----------------------------------| Repeat
Bb|-----------------------------------|
Gb|--7---4--7---4-555--7---4--7---4-5-|
Db|-5-5-4--5-5-4--555-5-5-4--5-5-4--5-|
Ab|---------------333---------------3-|
Db|-----------------------------------|

VERSE

It's kind of the same, the second time you play it though, slide up to 12-x-10
at the end of the 10-x-8 (B) power chords. Only play the 12-x-10 once though!

CHORUS

When you play the chorus again, after the A/G# power chords, the lead part
plays an octave above.

Rhythm:

eb|---------------------------------------------------------------------------|
Bb|---------------0-----------------------------------------------------------|
Gb|---------------0-----------------------------------------------------------|
Db|-33-000-33-000-2-33-000-33-000-888888888888888888888888-77777777-----------|
Ab|-33-000-33-000-2-33-000-33-000-888888888888888888888888-77777777-----------|
Db|-33-000-33-000-2-33-000-33-000-888888888888888888888888-77777777-----------|

(Play lead over the next part)

eb|---------------------------------------------------------------------------|
Bb|---------------------------------------------------------------------------|
Gb|---------------------------------------------------------------------------|
Db|-33-000-33-000-22-33-000-33-000-55-33-000-33-000-22-33-000-33-00000000-----|
Ab|-33-000-33-000-22-33-000-33-000-77-33-000-33-000-22-33-000-33-00000000-----|
Db|-33-000-33-000-22-33-000-33-000-55-33-000-33-000-22-33-000-33-00000000-----|

Lead:

eb|---------------------------------------------------------------------------|
Bb|-66-333-66-333-55-66-333-66-333-88-66-333-66-333-55-66-333-66-33333333-----|
Gb|-xx-xxx-xx-xxx-xx-xx-xxx-xx-xxx-xx-xx-xxx-xx-xxx-xx-xx-xxx-xx-xxxxxxxx-----|
Db|-33-000-33-000-22-33-000-33-000-55-33-000-33-000-22-33-000-33-00000000-----|
Ab|---------------------------------------------------------------------------|
Db|---------------------------------------------------------------------------|

BRIDGE

Rhythm:

eb|----8--| Play 24 times with different timing then  play the next bit
Bb|--6--6-|
Gb|-7-7---|
Db|-------|
Ab|-------|
Db|-------|

eb|----8-----8----8-| Play 4 times. 
Bb|--6--6--6--6--6--|
Gb|-7-7---7-7---7---|
Db|-----------------|
Ab|-----------------|
Db|-----------------|

Lead:

eb|--------| You can hear this on the right speaker. Play 24 times then:
Bb|--------|
Gb|--5-7-5-|
Db|-7-7----|
Ab|--------|
Db|--------|

eb|--------------------| Play 4 times
Bb|--------------------|
Gb|--5-7-5--5-7-5--5-7-|
Db|-7-7----7-7----7----|
Ab|--------------------|
Db|--------------------|

POST-BRIDGE

Rhythm:

eb|-----------------------------------|
Bb|-----------------------------------|
Gb|-----------------------------------|
Db|-888888888888888888888888-77777777-|
Ab|-888888888888888888888888-77777777-|
Db|-888888888888888888888888-77777777-|

eb|---------------------------------------------------------------------------|
Bb|---------------------------------------------------------------------------|
Gb|---------------------------------------------------------------------------|
Db|-33-000-33-000-22-33-000-33-000-55-33-000-33-000-22-33-000-33-00000000-----|
Ab|-33-000-33-000-22-33-000-33-000-77-33-000-33-000-22-33-000-33-00000000-----|
Db|-33-000-33-000-22-33-000-33-000-55-33-000-33-000-22-33-000-33-00000000-----|

eb|-----------------------------------|
Bb|-----------------------------------|
Gb|-----------------------------------|
Db|-888888888888888888888888-77777777-|
Ab|-888888888888888888888888-77777777-|
Db|-888888888888888888888888-77777777-|

Lead:

eb|-----------------66666666-55555555-1010101010101010-1212121212121212-------|
Bb|-----------------xxxxxxxx-xxxxxxxx-x-x-x-x-x-x-x-x--x-x-x-x-x-x-x-x--------|
Gb|-----------------3-3-3-3--2-2-2-2--7-7-7-7-7-7-7-7--9-9-9-9-9-9-9-9--------|
Db|---------------------------------------------------------------------------|
Ab|---------------------------------------------------------------------------|
Db|---------------------------------------------------------------------------|

eb|---------------------------------------------------------------------------|
Bb|-1010101010101010-11-101010101010------------------------------------------|
Gb|-x-x-x-x-x-x-x-x--x--x-x-x-x-x-x-------------------------------------------|
Db|-7-7-7-7-7-7-7-7--8--7-7-7-7-7-7-------------------------------------------|
Ab|---------------------------------------------------------------------------|
Db|---------------------------------------------------------------------------|

OUTRO

Lead:

eb|----8--| Play until the end
Bb|--6--6-|
Gb|-7-7---|
Db|-------|
Ab|-------|
Db|-------|

Rhythm:

eb|----------------|
Bb|----------------|
Gb|----------------|
Db|-000000-333-888-|
Ab|-000000-333-888-|
Db|-000000-333-888-|


| /  slide up
| \  slide down
| h  hammer-on
| p  pull-off
| ~  vibrato
| +  harmonic
| x  Mute note
===============================================================================

            
            
Suggest correction
Creating personal tab
Creating personal tab
You can edit any tab online and save it as your Personal.

You can edit, replace or remove any tab part or add personal notes – all changes will be seen only by you.

Personal tabs can be accessed anytime from any device, even offline.
Learn more »
Give kudos to tab author, rate the tab!
1 2 3 4 5
comments
print report bad tab
guest
You may want to rate the tab now too:
select rating
Wanna post a correction for this tab? Suggest correction