Oops, an error
Loading. Please wait.
We have an official Letters To You tab made by UG professional guitarists. Check out the tab »
×
by Finch
64,001 views 24 this week
11 commentsread comments
1 2 3 4 5
x 19
add to favorites
×
Save as Personal and add changes to this tab that will be seen only by you. Learn more ›
×
You can save this tab as Personal to edit and correct it or add notes. All changes will be seen only by you. Learn more »
launch autoscroll
font size
0
reset
how to read this tab
guitar tuner
backing track
0:00
0:00
edit
Autoscroll
slow
fast
+/-
esc
set tempo
stop
Author
Letters To You (Acoustic) - Finch
Standard Tuning

Order of song
Intro (16x)
Verse
Pre-Chorus
Chorus
Intro (2x)
Verse
Pre-Chorus
Chorus
Intro (4x)
Bridge
Chorus

Intro
|---------------------------------------------------|
|---------------------------------------------------|
|--7-----6-----9-----11-----11-------repeat that----| 
|----0-----0-----0------0------0------shizz--16-----|
|------0-----0-----0------0------0------times-------|
|---------------------------------------------------|

Verse
|--0--0--0--0---------------------------------------|
|--3--0--3--0---------------------------------------|
|--2--2--0--2-----Strum each chord 16 times---------| 
|--0--4--0--2---------------------------------------|
|--0--4--2--0---------------------------------------|
|--x--x--x--x---------------------------------------|

Pre-Chorus
|--x--x--x--x---------------------------------------|
|--x--x--x--x---------------------------------------|
|--6--7--7--6-----Strum each chord 16 times---------|
|--x--x--7--7---------------------------------------|
|--4--5--5--5---------------------------------------|
|--x--x--x--x---------------------------------------|

CHORUS
|--x--x--0--x---------------------------------------|
|--x--x--3--x---------------------------------------|
|--4--x--2--6-----Strum each chord 16 times---------|
|--4--5--0--6---------------------------------------|
|--2--5--0--4---------------------------------------|
|--x--3--x--x---------------------------------------|

Bridge
|--x--x---------------------------------------------|
|--x--x---------------------------------------------|
|--9--7-----------Strum each chord 16 times---------|
|--x--x---------------------------------------------|
|--7--5---------------------------------------------|
|--x--x---------------------------------------------|

            
            
Suggest correction
Creating personal tab
Creating personal tab
You can edit any tab online and save it as your Personal.

You can edit, replace or remove any tab part or add personal notes – all changes will be seen only by you.

Personal tabs can be accessed anytime from any device, even offline.
Learn more »
comments
print report bad tab
11 comments total. Showing first comments.
0 reply
nitro-fish 10 Aug 07, 2004 08:00 PM

Good Job

+1 reply
wh1ck3r 10 Nov 14, 2004 07:00 PM

good job...except in the chorus he plays
e------------
b-------3----
g-4-----2--6-
d-4--7-----6-
a-2--5-----4-
e----5-------
and i think it might be drop D. correct me if im wrong. those are just the chords

0 reply
takinbcksundayd 10 Nov 24, 2004 07:00 PM

It sounds nothing like "punk goes acoustic"

guest
You may want to rate the tab now too:
select rating
Wanna post a correction for this tab? Suggest correction