Oops, an error
Loading. Please wait.

Absent Elements bass

version 1
version 1

Whole song

Interactive

497 views 1 this week
no commentswrite comment
1 2 3 4 5
x 3
add to favorites
×
Save as Personal and add changes to this tab that will be seen only by you. Learn more ›
×
You can save this tab as Personal to edit and correct it or add notes. All changes will be seen only by you. Learn more »
launch autoscroll
font size
0
reset
guitar tuner
edit
Autoscroll
slow
fast
+/-
esc
set tempo
stop
Song: Absent Elements
Artist: Finger Eleven
Album: Finger Eleven
Tuning: Drop Db (Db Ab Db Gb)

Intro:
Gb|--------------------------|    Gb|------------------------|
Db|--------------------------| x3 Db|------------------------|
Ab|-(guitar only)------------|    Ab|(guitar)----------------|
Db|----------------5-5-5h7-7-|    Db|--------5-5-5h7-5-5h7-7-|

Gb|----------------------|    Gb|------------------------|
Db|----------------------| x3 Db|------------------------|
Ab|-444444444------------|    Ab|-44444------------------|
Db|------------5-5-5h7-7-|    Db|--------5-5-5h7-5-5h7-7-|

Gb|----------|
Db|----------|
Ab|----------|
Db|-9--------|

Verse:
Gb|-----------------------------------------------------------------|
Db|-----------------------------------------------------------------|
Ab|-0-0-0-0-0-0-0-0-0-0-0-0-0-0-0-0---------------------------------|
Db|---------------------------------0-0-0-0-0-0-0-0-2-2-2-2-2-2-2-2-|

Chorus:
Gb|-------------|--> |------------------|
Db|-------------|--> |------------------|<--2x
Ab|-0--0--0--0--|--> |------------------|
Db|-------------|--> |-77-99-1010-777-7-|

Gb|-------------|--> |-------------------|
Db|-------------|--> |-------------------|<--2x
Ab|-0--0--0--0--|--> |-------------------|
Db|-------------|--> |-77-99-77-99-77-99-|

Gb|-----------|
Db|-----------|
Ab|-----------|
Db|-3-3-3h5-5-|

Second Verse:
Gb|-------------------------------------------------------------|
Db|-------------------------------------------------------------|
Ab|-12\-12\-12\-12\-12\-12\-12\-12\-----------------7\-7\-7\-7\-|
Db|---------------------------------12\-12\-12\-12\-------------|

-->Chorus

Bridge:
Gb|------------|
Db|------------| 14x
Ab|------------|
Db|-77-99-1010-|

(No bass in between these two riffs)

Gb|---|
Db|---|Repeat until third chorus
Ab|---|
Db|-7-|

-->Chorus 2x

Outro:
Gb|-------------------|    Gb|-----------|
Db|-------------------| 3x Db|-----------|
Ab|-000000000---------|    Ab|-000000000-|
Db|-----------3-3-3h5-|    Db|-----------|

    _____{Key}______
    |\=Slide Down  |
    |h=Hammer-On   |
    |______________|

            
            
Suggest correction
Creating personal tab
Creating personal tab
You can edit any tab online and save it as your Personal.

You can edit, replace or remove any tab part or add personal notes – all changes will be seen only by you.

Personal tabs can be accessed anytime from any device, even offline.
Learn more »
Give kudos to tab author, rate the tab!
1 2 3 4 5
comments
print report bad tab
guest
You may want to rate the tab now too:
select rating
Wanna post a correction for this tab? Suggest correction