Oops, an error
Loading. Please wait.

Conversations tab

version 2
version 2

Whole song

22 views 1 this week
no commentswrite comment
1 2 3 4 5
2 more votes to show rating
add to favorites
×
Save as Personal and add changes to this tab that will be seen only by you. Learn more ›
×
You can save this tab as Personal to edit and correct it or add notes. All changes will be seen only by you. Learn more »
launch autoscroll
font size
0
reset
how to read this tab
guitar tuner
edit
Autoscroll
slow
fast
+/-
esc
set tempo
stop
About this tab version
Based off the studio recording. Was this info helpful? Yes No
Finger Eleven
Conversations
Drop Db (Db,Ab,Db,Gb,Bb,Eb)
Tempo 122bpm


   [Verse]
eb|--8-8-8-8-8-7-7-------------|--10-10-10-10-10-8-8------------|
Bb|----------------------------|--------------------------------|
Gb|--5-5-5-5-5-4-4-------------|--7--7--7--7--7--5-5------------|
Db|----------------------------|--------------------------------|
Ab|----------------------------|--------------------------------|
Db|----------------------------|--------------------------------|
  |                                                             |
eb|----------------------------|--------------------------------|
Bb|--1-1-1-1-1-0-0-------------|-3--3--3--3--3--1-1-------------|
Gb|--0-0-0-0-0-0-0-------------|-0--0--0--0--0--0-0-------------|
Db|--2-2-2-2-2-2-2-------------|-3--3--3--3--3--3-3-------------|
Ab|--0-0-0-0-0-0-0-------------|-0--0--0--0--0--0-0-------------|
Db|----------------------------|--------------------------------|


eb|--13-13-13-13-13-12-12-12-12-12-12-12-12-12-12-12--|--12-12-12-12-12-8-8-------------|
Bb|-------------------------------------------------------------------------------------|
Gb|--10-10-10-10-10-9--9--9--9--9--9--9--9--9--9--9---|--9--9--9--9--9--5-5-------------|
Db|-------------------------------------------------------------------------------------|
Ab|-------------------------------------------------------------------------------------|
Db|-------------------------------------------------------------------------------------|
  |                                                                                     |
eb|---------------------------------------------------|---------------------------------|
Bb|---------------------------------------------------|--5--5--5--5--5--1-1-------------|
Gb|--10-10-10-10-10-9--9--9--9--9--9--9--9--9--9--x---|--0--0--0--0--0--0-0-------------|
Db|--7--7--7--7--7--7--7--7--7--7--7--7--7--7--7--x---|--3--3--3--3--3--3-3-------------|
Ab|--0--0--0--0--0--0--0--0--0--0--0--0--0--0--0--x---|--0--0--0--0--0--0-0-------------|
Db|---------------------------------------------------|---------------------------------|
                                                                                       4x

eb|--------0---------5----5----|
Bb|-----6------------6----6----|
Gb|--7---------------7----7----|
Db|----------------------------|
Ab|----------------------------|
Db|----------------------------|


   [Chorus]
eb|-------0------------0------------0---------|-------0------------0------------0---------|
Bb|--8------------5------------6--------------|--0-------------------------3---------3----|
Gb|--9---------9--5---------5--7---------7----|--5---------5--2---------2-----------------|
Db|-------------------------------------------|-------------------------------------------|
Ab|-------------------------------------------|-------------------------------------------|
Db|-------------------------------------------|-------------------------------------------|
  |                                                                                       |
eb|-------------------------------------------|-------------------------------------------|
Bb|------------0------------0-----------------|------------0------------0-----------------|
Gb|-------5------------5-----------------0----|-------5------------5-----------------0----|
Db|--7------------7-----------------7---------|--7------------7-----------------7---------|
Ab|----------------------------5--------------|----------------------------5--------------|
Db|-------------------------------------------|-------------------------------------------|


eb|-------0------------0------------0---------|-------------------------------------------|
Bb|--8------------5------------6--------------|-------------------------------------------|
Gb|--9---------9--5---------5--7---------7----|-------------------------------------------|
Db|-------------------------------------------|-------------------------------------------|
Ab|-------------------------------------------|--0----3----2--0----3----2-----------------|
Db|-------------------------------------------|----------------------------0--------------|
  |                                                                                       |
eb|-------------------------------------------|-------------------------------------------|
Bb|------------0------------0-----------------|-------------------------------------------|
Gb|-------5------------5-----------------0----|-------------------------------------------|
Db|--7------------7-----------------7---------|-------------------------------------------|
Ab|----------------------------5--------------|--0----3----2--0----3----2-----------------|
Db|-------------------------------------------|----------------------------0--------------|


   [Verse]
eb|--8-8-8-8-8-7-7-------------|--10-10-10-10-10-8-8------------|
Bb|----------------------------|--------------------------------|
Gb|--5-5-5-5-5-4-4-------------|--7--7--7--7--7--5-5------------|
Db|----------------------------|--------------------------------|
Ab|----------------------------|--------------------------------|
Db|----------------------------|--------------------------------|
  |                                                             |
eb|----------------------------|--------------------------------|
Bb|--1-1-1-1-1-0-0-------------|-3--3--3--3--3--1-1-------------|
Gb|--0-0-0-0-0-0-0-------------|-0--0--0--0--0--0-0-------------|
Db|--2-2-2-2-2-2-2-------------|-3--3--3--3--3--3-3-------------|
Ab|--0-0-0-0-0-0-0-------------|-0--0--0--0--0--0-0-------------|
Db|----------------------------|--------------------------------|


eb|--13-13-13-13-13-12-12-12-12-12-12-12-12-12-12-12--|--12-12-12-12-12-8-8-------------|
Bb|-------------------------------------------------------------------------------------|
Gb|--10-10-10-10-10-9--9--9--9--9--9--9--9--9--9--9---|--9--9--9--9--9--5-5-------------|
Db|-------------------------------------------------------------------------------------|
Ab|-------------------------------------------------------------------------------------|
Db|-------------------------------------------------------------------------------------|
  |                                                                                     |
eb|---------------------------------------------------|---------------------------------|
Bb|---------------------------------------------------|--5--5--5--5--5--1-1-------------|
Gb|--10-10-10-10-10-9--9--9--9--9--9--9--9--9--9--x---|--0--0--0--0--0--0-0-------------|
Db|--7--7--7--7--7--7--7--7--7--7--7--7--7--7--7--x---|--3--3--3--3--3--3-3-------------|
Ab|--0--0--0--0--0--0--0--0--0--0--0--0--0--0--0--x---|--0--0--0--0--0--0-0-------------|
Db|---------------------------------------------------|---------------------------------|
                                                                                       3x

eb|--------0---------5----5----|
Bb|-----6------------6----6----|
Gb|--7---------------7----7----|
Db|----------------------------|
Ab|----------------------------|
Db|----------------------------|


   [Chorus]
eb|-------0------------0------------0---------|-------0------------0------------0---------|
Bb|--8------------5------------6--------------|--0-------------------------3---------3----|
Gb|--9---------9--5---------5--7---------7----|--5---------5--2---------2-----------------|
Db|-------------------------------------------|-------------------------------------------|
Ab|-------------------------------------------|-------------------------------------------|
Db|-------------------------------------------|-------------------------------------------|
  |                                                                                       |
eb|-------------------------------------------|-------------------------------------------|
Bb|------------0------------0-----------------|------------0------------0-----------------|
Gb|-------5------------5-----------------0----|-------5------------5-----------------0----|
Db|--7------------7-----------------7---------|--7------------7-----------------7---------|
Ab|----------------------------5--------------|----------------------------5--------------|
Db|-------------------------------------------|-------------------------------------------|


eb|-------0------------0------------0---------|-------------------------------------------|
Bb|--8------------5------------6--------------|-------------------------------------------|
Gb|--9---------9--5---------5--7---------7----|-------------------------------------------|
Db|-------------------------------------------|-------------------------------------------|
Ab|-------------------------------------------|--0----3----2--0----3----2-----------------|
Db|-------------------------------------------|----------------------------0--------------|
  |                                                                                       |
eb|-------------------------------------------|-------------------------------------------|
Bb|------------0------------0-----------------|-------------------------------------------|
Gb|-------5------------5-----------------0----|-------------------------------------------|
Db|--7------------7-----------------7---------|-------------------------------------------|
Ab|----------------------------5--------------|--0----3----2--0----3----2-----------------|
Db|-------------------------------------------|----------------------------0--------------|


   [Bridge]
eb|----------------------------|
Bb|----------------------------|
Gb|----------------------------|
Db|-------7---------5--5-7^----|
Ab|------------4---------------|
Db|--8-------------------------|
     pm. . . . . . . . . .    8x

eb|------------------------------------------------------|---------------------------------------------------|
Bb|--3---------------------------------------------------|---------------------------------------------------|
Gb|--2---------------------------------------------------|---------------------------------------------------|
Db|--0---------------------------------------------------|-------7---------5--5-7^--------7---------5--5-7^--|
Ab|------------------------------------------------------|------------4------------------------4-------------|
Db|-------0----0--2----2----2--3----3----3--7----7----7--|--8------------------------8-----------------------|
                                                           pm. . . . . . . . . . . . . . . . . . . . . . .  2x

eb|-5---------------------------------------------------|-5--------------------------------------------------|
Bb|-6---------------------------------------------------|-6--------------------------------------------------|
Gb|-7---------------------------------------------------|-7--------------------------------------------------|
Db|-----------------------------------------------------|----------------------------------------10--10--10--|
Ab|-----------------------------------------------------|----------------------------------------------------|
Db|------0----0--2----2----2--3----3----3--7----7----7--|------0----0--2----2----2--3----3----3--10--10--10--|



eb|--5-------------------------5-------------------------|--5------------5------------5------------5---5--|
Bb|--6-------------------------6-------------------------|--6------------6------------6------------6---6--|
Gb|--7-------------------------7-------------------------|--7------------7------------7------------7---7--|
Db|------------------------------------------------------|------------------------------------------------|
Ab|------------------------------------------------------|------------------------------------------------|
Db|-------0----0--2----2----2-------3----3--2----2----2--|-------0----0-------0----0-------0----0---------|


   [Chorus]
eb|---------------------------------------------|-------------------------------------------|
Bb|------------0------------0-------------------|------------0------------0-----------------|
Gb|-------5------------5-----------------0------|-------5------------5-----------------0----|
Db|--7------------7-----------------7-----------|--7------------7-----------------7---------|
Ab|----------------------------5----------------|----------------------------5--------------|
Db|---------------------------------------------|-------------------------------------------|
  |                                                                                         |
eb|---------------------------------------------|-------------------------------------------|
Bb|---------------------------------------------|-------------------------------------------|
Gb|---------------------------------------------|-------------------------------------------|
Db|---------------------------------------------|-------------------------------------------|
Ab|--0----3----2--0----3----2-------0-----------|--0----3----2--0----3----2-------0---------|
Db|----------------------------0---------5---5\-|----------------------------0---------5----|


eb|---------------------------------------------|-----------------------------------------------|
Bb|------------0------------0-------------------|------------0------------0---------------------|
Gb|-------5------------5-----------------0------|-------5------------5-----------------0--------|
Db|--7------------7-----------------7-----------|--7------------7-----------------7-------------|
Ab|----------------------------5----------------|----------------------------5------------------|
Db|---------------------------------------------|-----------------------------------------------|
  |                                                                                             |
eb|---------------------------------------------|-----------------------------------------------|
Bb|---------------------------------------------|-----------------------------------------------|
Gb|---------------------------------------------|-----------------------------------------------|
Db|---------------------------------------------|-----------------------------------------------|
Ab|--0----3----2--0----3----2-------0-----------|--0----3----2--0----3----2-------0-------------|
Db|----------------------------0---------5------|----------------------------0---------5----5\--|


eb|---------------------------------------------|-----------------------------------------------|
Bb|---------------------------------------------|-----------------------------------------------|
Gb|---------------------------------------------|-----------------------------------------------|
Db|---------------------------------------------|-----------------------------------------------|
Ab|--0----3----2--0----3----2-------0----5------|--0----3----2--0----3----2-------0----5--------|
Db|----------------------------0---------5------|----------------------------0---------5--------|
  |                                                                                             |
eb|---------------------------------------------|-----------------------------------------------|
Bb|---------------------------------------------|-----------------------------------------------|
Gb|---------------------------------------------|-----------------------------------------------|
Db|---------------------------------------------|-----------------------------------------------|
Ab|--0----3----2--0----3----2-------0-----------|--0----3----2--0----3----2-------0-------------|
Db|----------------------------0---------5------|----------------------------0---------5----5\--|


eb|---------------------------------------------|------------------------------5-5-5-5-5----5-5-5----5-5-5--|
Bb|---------------------------------------------|------------------------------6-6-6-6-6----6-6-6----6-6-6--|
Gb|---------------------------------------------|------------------------------7-7-7-7-7----7-7-7----7-7-7--|
Db|---------------------------------------------|-----------------------------------------------------------|
Ab|--0----3----2--0----3----2-------0----5------|--0----3----2--0----3----2---------------------------------|
Db|----------------------------0---------5------|-----------------------------------------------------------|
  |                                                                                                         |
eb|---------------------------------------------|------------------------------5-5-5-5-5----5-5-5----5-5-5--|
Bb|---------------------------------------------|------------------------------6-6-6-6-6----6-6-6----6-6-6--|
Gb|---------------------------------------------|------------------------------7-7-7-7-7----7-7-7----7-7-7--|
Db|---------------------------------------------|-----------------------------------------------------------|
Ab|--0----3----2--0----3----2-------0-----------|--0----3----2--0----3----2---------------------------------|
Db|----------------------------0---------5---5\-|-----------------------------------------------------------|


************************************

| x   Dead note
| ^   Bend release
| /   Slide up
| \   Slide down
| PM  Palm mute

************************************

            
            
Suggest correction
Creating personal tab
Creating personal tab
You can edit any tab online and save it as your Personal.

You can edit, replace or remove any tab part or add personal notes – all changes will be seen only by you.

Personal tabs can be accessed anytime from any device, even offline.
Learn more »
Give kudos to tab author, rate the tab!
1 2 3 4 5
comments
print report bad tab
guest
You may want to rate the tab now too:
select rating
Wanna post a correction for this tab? Suggest correction