Oops, an error
Loading. Please wait.

Obvious Heart bass

version 1
version 1

Whole song

Interactive

350 views 1 this week
2 commentsread comments
1 2 3 4 5
2 more votes to show rating
add to favorites
×
Save as Personal and add changes to this tab that will be seen only by you. Learn more ›
×
You can save this tab as Personal to edit and correct it or add notes. All changes will be seen only by you. Learn more »
launch autoscroll
font size
0
reset
guitar tuner
edit
Autoscroll
slow
fast
+/-
esc
set tempo
stop
Author
-------------------------------------------------------------------------------
	               Obvious Heart - Finger Eleven
-------------------------------------------------------------------------------

Tabbed By : Omnisyn (Kyle I)
e-mail: disfigured_bassist@hotmail.com

Tuning: Standard (EADG)

I understand that Sean Anderson recorded this song on a 5 string bass. I
transposed it completely accurately for a 4 string. Make sure you turn down
the treble, turn up the bass, and get a fat tone similar to Anderson's. 


                
G|----------------------------------------------------|
D|----------------------------------------------------|
A|--------5-----------5-----------5-----------5-------| x3
E|---7-77---7---77777---7---77-77---7---77777---777---|

G|----------------------------------------------------|
D|----------------------------------------------------|
A|--------2-----------2-----------2-----------2-------| x1
E|---4-44---4---44444---4---44-44---4---44444---424---|

G|----------------------------------------------------|
D|----------------------------------------------------|
A|--------5-----------5-----------5-----------5-------| x1
E|---7-77---7---77777---7---77-77---7---77777---777---|

G|----------------------------------------------------|
D|----------------------------------------------------|
A|--------2-----------2-----------2-----------2-------| x1
E|---4-44---4---44444---4---44-44---4---44444---424---|

               

G|---------------------------------------|
D|---------------------------------------|
A|---------------------------------------|
E|--00---00---00---4\16---44\16-14-------|

G|------------------------------------|
D|------------------------------------|    
A|------------------------------------|
E|--00---00---00---4\16---4444\16-14--|

G|---------------------------------------------------------------|
D|--------------------------------------------13----13---13------|
A|---------------------------------------------------------------|
E|--00---00---00---4\16---6666\18181818---11-----11---11-----11--|



G|----------------------------------------------------|
D|----------------------------------------------------|
A|--------5-----------5-----------5-----------5-------|
E|---7-77---7---77777---7---77-77---7---77777---777---|

G|----------------------------------------------------|
D|----------------------------------------------------|
A|--------2-----------2-----------2-----------2-------|
E|---4-44---4---44444---4---44-44---4---44444---424---|

G|----------------------------------------------------|
D|----------------------------------------------------|
A|--------5-----------5-----------5-----------5-------|
E|---7-77---7---77777---7---77-77---7---77777---777---|

G|----------------------------------------------------|
D|----------------------------------------------------|
A|--------2-----------2-----------2------2------------|
E|---4-44---4---44444---4---44-44---4444---424/1616---|



G|----------------------------------|
D|----------------------------------|
A|----------------------------------|
E|--00---00---00---4\16---44\16-14--|

G|------------------------------------|
D|------------------------------------|    
A|------------------------------------|
E|--00---00---00---4\16---4444\16-14--|

G|-------------------------------------------------------------|
D|-------------------------------------------13----13--13------|
A|-------------------------------------------------------------|
E|--00---00---00---4\16---6666\18181818---11-----11--11----11--|



G|----------------------------------------------------------------------|
D|----------------------------------------------------------------------|
A|----------------------------------------------------------------------|
E|--44444444444444444444444444444444-22222222222222222222222222222222\--|

G|--------------------------------------------------------------------------|
D|--------------------------------------------------------------------------|
A|--------------------6666666666666666--------------------------------------|
E|--9999999999999999/------------------444444444444444444444444444444\1616--|

G|-----------------------------------------------------------------------|
D|-----------------------------------------------------------------------|
A|-----------------------------------------------------6666666666666666--|
E|--22222222222222222222222222222222\9999999999999999/-------------------|

G|---------------------------------------------------|
D|---------------------------------------------------|
A|---------------------------------------------------|
E|--4444444444444444444444444\16161616161616-16-14-00|



G|------------------------------------------------------------------------|
D|------------------------------------------------------------------------|
A|------------------------------------------------------------------------|
E|--4444\16161616---4444\1616-14---00--00--0---4444\16161616--4444\16-14--|

G|---------------------------------------------------------|
D|------------------------------------13---13--13--13------|
A|---------------------------------------------------------|
E|--00--00--00---4444\16---66\18---11----11--11--11----11--|



G|--------------------------------------------|
D|-----9h11p9--8h9p8-8------------------------|
A|--11-----------------9\11---------1-2-1-----|
E|---------------------------11/2-4-------4\--|

G|------------------------------------|
D|-----9h11p9--8h9p8-8----------------|
A|--11-----------------9\11/----------|
E|----------------------------4--2\---|

G|----------------------------------------|
D|-----9h11p9--8h9p8-8--------------------|
A|--11-----------------9\11/---------2-1--|
E|----------------------------4--2-4------|

G|-------------------------------------|
D|-----9h11p9--8h9p8-8-----------------|
A|--11-----------------9\11/-----------|
E|----------------------------4\19-16--|

G|-----------------------------------------|
D|-----9h11p9--8h9p8-8---------------------|
A|--11-----------------9\11/---------------|
E|----------------------------4--4-4-2-2\--|

G|------------------------------------|
D|-----9h11p9--8h9p8-8----------------|
A|--11-----------------9\11\--20------|
E|-------------------------------19/--|

G|----------------------------------|
D|-----9h11p9--8h9p8-8--------------|
A|--11-----------------9\11/--------|
E|----------------------------4--2--|

G|-------------------------------------|
D|-----9h11p9--8h9p8-8-----------------|
A|--11-----------------9\11------------|
E|----------------------------4--2--4--|



| /  slide up
| \  slide down
| h  hammer-on
| p  pull-off
| ~  vibrato
| +  harmonic
| x  Mute note

            
            
Suggest correction
Creating personal tab
Creating personal tab
You can edit any tab online and save it as your Personal.

You can edit, replace or remove any tab part or add personal notes – all changes will be seen only by you.

Personal tabs can be accessed anytime from any device, even offline.
Learn more »
Give kudos to tab author, rate the tab!
1 2 3 4 5
comments
print report bad tab
2 comments total.
0 reply
guitarwarrior10 10 Aug 02, 2010 06:38 PM

great tab! the only thing is i think it is tuned half-step down. but other than that it sounds great!

0 reply
Omnisyn 30 Aug 29, 2010 02:45 PM

You know what I think you're right, I listened and played along about 50 times and I could've tabbed it in half step down, but the notes sound right, next tab I'll do half step for F11

guest
You may want to rate the tab now too:
select rating
Wanna post a correction for this tab? Suggest correction