Oops, an error
Loading. Please wait.

Other Light bass

version 2
version 2

Whole song

586 views 3 this week
no commentswrite comment
1 2 3 4 5
3 more votes to show rating
add to favorites
×
Save as Personal and add changes to this tab that will be seen only by you. Learn more ›
×
You can save this tab as Personal to edit and correct it or add notes. All changes will be seen only by you. Learn more »
launch autoscroll
font size
0
reset
guitar tuner
edit
Autoscroll
slow
fast
+/-
esc
set tempo
stop
Author
------------------------------------------------------------------
			     Other Light - Finger Eleven
------------------------------------------------------------------

Tabbed By : Billy M

Tuning: Standard

The other tabs were missing all the bass fills.
The bassist for finger eleven plays a 5-string, but this song
still sounds good in standard tuning on a 4-string.

Intro:
G|-----------------------------------------------------------------------|
D|------------------------------------------------10101010---------------|
A|--888---------666---------888---------666------------------------------|
E|------888-9\------666-8\------888-9\------666-8\-----------------------|

G|-----------------------------------------------------------------------|
D|-----------------------------------------------------------------------|
A|--888---------666---------888---------666------------------------------|
E|------888-9\------666-8\------888-9\------666-8\-----------------------|

Verse 1:
G|-----------------------------------------------------------------------|
D|-111---------------------------111-----------------------4433----------|
A|-----111-2---2--444-----1----------111-2---2--444-----1----------------|
E|-----------2--------444---4-1------------2--------444------------------|

G|-----------------------------------------------------------------------|
D|-111---------------------------111-------------------------------------|
A|-----111-2---2--444-----1----------111-2---2--444-----1----------------|
E|-----------2--------444---4-1------------2--------444---4-0h4----------|

G|-----------------------------------------------------------------------|
D|-111---------------------------111-----------------------4433----------|
A|-----111-2---2--444-----1----------111-2---2--444-----1----------------|
E|-----------2--------444---4-1------------2--------444------------------|

Chorus: play 4x
G|-----------------------------------------------------------------------|
D|-----------------------------------------------------------------------|
A|--666---------444------------------------------------------------------|
E|------666-7\------444-6\-----------------------------------------------|

Verse 2:
G|-----------------------------------------------------------------------|
D|-111---------------------------111-----------------------4433----------|
A|-----111-2---2--444-----1----------111-2---2--444-----1----------------|
E|-----------2--------444---4-1------------2--------444------------------|

G|-----------------------------------------------------------------------|
D|-111---------------------------111---------------------/8888-----------|
A|-----111-2---2--444-----1----------111-2---2--444-----1/---------------|
E|-----------2--------444---4-1------------2--------444------------------|

Chorus: play 4x
G|---------------------------|
D|---------------------------|
A|--666---------444----------|
E|------666-7\------444-6\---|

New Chorus: play 4x
G|-----------------------------------------------------------------------|
D|-----------------------------------------------------------------------|
A|--888---------666------------------------------------------------------|
E|------888-9\------666-8\-----------------------------------------------|

Then do this fill: (tenth fret, not first)
G|---------------------------|
D|--10101010-----------------|
A|---------------------------|
E|---------------------------|

Interlude:
G|-----------------------------------------------------------------------|
D|-----------------------------------------------------------------------|
A|--666---------444----------666---------444-----------------------------|
E|------666-7\------444-6\-------666-7\------444-7\----------------------|

G|-----------------------------------------------------------------------|
D|-----------------------------------------------------------------------|
A|--666----------444----------666----------444---------------------------|
E|------666-777\-----444-666------666-777\-----444-666-------------------|

G|------8-----------------6----------------8----------------6------------|
D|----8------8-----9----6------6-----8---8------8-----9---6------6-----8-|
A|--6------8-----9----4------6-----8---6------8-----9---4------6-----8---|
E|-------6-----7-----------4-----6----------6-----7----------4-----6-----|

Chorus x4
Then do this fill: (tenth fret, not first)
G|---------------------------|
D|--10101010-----------------|
A|---------------------------|
E|---------------------------|

Chorus x4 again, but on the fourth time through end on:
G|---------------------------|
D|---------------------------|
A|--666---------444----------|
E|------666-7\------4-4h6----| let last note ring


| /  slide up
| \  slide down
| h  hammer-on
| p  pull-off
| ~  vibrato
| +  harmonic
| x  Mute note
==========================================================================

            
            
Suggest correction
Creating personal tab
Creating personal tab
You can edit any tab online and save it as your Personal.

You can edit, replace or remove any tab part or add personal notes – all changes will be seen only by you.

Personal tabs can be accessed anytime from any device, even offline.
Learn more »
Give kudos to tab author, rate the tab!
1 2 3 4 5
comments
print report bad tab
guest
You may want to rate the tab now too:
select rating
Wanna post a correction for this tab? Suggest correction