Oops, an error
Loading. Please wait.

Paralyzer bass

version 1
version 1
40,414 views 33 this week
8 commentsread comments
1 2 3 4 5
x 8
add to favorites
×
Save as Personal and add changes to this tab that will be seen only by you. Learn more ›
×
You can save this tab as Personal to edit and correct it or add notes. All changes will be seen only by you. Learn more »
launch autoscroll
font size
0
reset
guitar tuner
backing track
0:00
0:00
edit
Autoscroll
slow
fast
+/-
esc
set tempo
stop
Author
[Drum Intro]

[Chorus]
G|-----------------------------------------------|
D|-----------------------------------------------|
A|-----------------0-0-0-0-----------------------|
E|-0-0-0-0-0-0-0-0---------3-3-3-3---------------|
  1 2 3 4 1 2 3 4 1 2 3 4 1 2 3 4
   well i'm not paralyzed...

G|-----------------------------------------------------------|
D|-----------------------------------------------------------|
A|------------------00-0-0-0---------------------------------|
E|--0-0-0-0-0-0-0-0p----------33-0-0000r---------------------|
   1 2 3 4 1 2 3 4 1a 2 3 4  1a 2 3a4a (<- play last 4 notes fast)
   if your body.....

[Verse] 
(wait 4 measures)(10's below)
G|---------------------------------------------------------------------------|
D|---------------------------------------------------------------------------|
A|---------7-1010-97---7-1010-97------------------------7-1010-97--7-1010-97-|
E|--12/7-0------------0------------2202p--22222-30----0-----------0----------|
  I hold on so....

G|-------------------------------------------------|
D|-------------------------------------------------|
A|-------------------------------------------------|
E|---7775554443332---7775554443332-----------------|
    the darkest place...

[Chorus]
G|---------------------------------------------------|
D|---------------------------------------------------|
A|---------------------------------------------------|
E|-(wait-4 measures)--0-0-0--(wait-1-measure)-5-5-5--|(wait 1 measure)

            
            
Suggest correction
Creating personal tab
Creating personal tab
You can edit any tab online and save it as your Personal.

You can edit, replace or remove any tab part or add personal notes – all changes will be seen only by you.

Personal tabs can be accessed anytime from any device, even offline.
Learn more »
comments
print report bad tab
8 comments total. Showing first comments.
-1 reply
__Ronnie__ 1,009 Jun 04, 2007 12:48 PM

All the notes seem to be correct but in my opinion it looks like you typed this up in a couple minutes, no offense. 4 stars.

Also in the order thing it says "chorus pt 2"but there isn't a tab labeled "chorus pt 2"

0 reply
dmoney0440 30 Jul 19, 2007 07:00 AM

I just think that it was too short and there was a lot more stuff (fills) that was put in near the end of the song

0 reply
Pre.Chewed 10 Aug 24, 2007 11:42 AM

too short and it looks like u were in a hurry to make it

guest
You may want to rate the tab now too:
select rating
Wanna post a correction for this tab? Suggest correction