Oops, an error
Loading. Please wait.

Paralyzer bass

version 3
version 3
13,066 views 9 this week
5 commentsread comments
1 2 3 4 5
x 4
add to favorites
×
Save as Personal and add changes to this tab that will be seen only by you. Learn more ›
×
You can save this tab as Personal to edit and correct it or add notes. All changes will be seen only by you. Learn more »
launch autoscroll
font size
0
reset
guitar tuner
backing track
0:00
0:00
edit
Autoscroll
slow
fast
+/-
esc
set tempo
stop
Author
Difficulty
Woohoo my first tab. I'm not 100% dead on but I think I'm closer than the other people, 
since I'm tabbing the bridge (which nobody else did). Almost all of the song is just 
finger strumming, except those few notes in the end which I marked with a 'P' for pop.

(Beginning guitar chord, then drums)

Chorus

G |-----------------------------------------------------------------------|
D |-----------------------------------------------------------------------|
A |------------------------0-5--5--5--5--3--3--3--33-5--------------------|
E |-0--0--0--0--0--0--0--0-----------------------------0--0--0--0--0--0--0|

  |----------------------------------|
  |----------------------------------|
  |--0-5-5-5--5--5--5-3-3-3--3--3--3-|
  |0---------------------------------|

Verse

  (Begin each Verse with this)
  |------|
  |------|
  |-0h7/-|
  |------|

  |----------------------------------------------------------------|
  |------------------6/-------------------6/-----------------------|   X 2
  |---------5/9-10-9-------------5/9-10-9--------------------------|
  |-1--1/5---------------1--1/5--------------2-22-0-2---2-22-0-2--0|

Chorus Again

Verse X2 Again

Chorus Again

Bridge (Palm mute all notes on G string, trust me they're there!)

  |---4p3-0-4-4p3--4p3-0-4-4p3-0---5p4-0-5-5p4-0---5p4-0|
  |-----------------------------------------------------|
  |------------------------------0---------------0------|
  |-0-------------0-------------------------------------|

  |---5p4-0-776-8-7---4p3-0-4-4-4p3-2-| |
  |-----------------------------------| |
  |-0---------------0-----------------| |
  |-----------------------------------| |

Chorus

'Special' Chorus

  |----5~-----------4h5-4----------------+------------+|
  |--------------------------------------+------------+|
  |---5--5---33-5---------5----0-5--5--5-+3--3--3--3-5+|
  |-0------0------0---------00-----------+------------+|
       P            P---P

  2nd time, do the part between + signs like this:

  |--------------------------|
  |--------------------------|
  |-555h6-4-3-3-3--3--3--5---|
  |------------------------0-|

            
            
Suggest correction
Creating personal tab
Creating personal tab
You can edit any tab online and save it as your Personal.

You can edit, replace or remove any tab part or add personal notes – all changes will be seen only by you.

Personal tabs can be accessed anytime from any device, even offline.
Learn more »
comments
print report bad tab
5 comments total. Showing first comments.
+1 reply
BaSSiSt_METAL 105 Mar 20, 2008 05:35 PM

im not the best bassist
but i do know that finger 11 has a 5 string
and i know he does play the 5t string at some point
but its seems pretty right
really god job

0 reply
shadowcon77 10 Apr 13, 2008 05:18 AM

you can still use a four string tho..

Good job with the tabbing :)

0 reply
NickInMesa 10 Oct 06, 2010 06:16 PM

I am absolutely not convinced AT ALL.

Are you talking about Paralyzer by Finger 11?

guest
You may want to rate the tab now too:
select rating
Wanna post a correction for this tab? Suggest correction