Oops, an error
Loading. Please wait.

Stay In Shadow bass

version 1
version 1

Whole song

Interactive

1,893 views 3 this week
no commentswrite comment
1 2 3 4 5
x 3
add to favorites
×
Save as Personal and add changes to this tab that will be seen only by you. Learn more ›
×
You can save this tab as Personal to edit and correct it or add notes. All changes will be seen only by you. Learn more »
launch autoscroll
font size
0
reset
guitar tuner
edit
Autoscroll
slow
fast
+/-
esc
set tempo
stop
Difficulty
Drop D tuning
tune down a half step
Tabbed: BasSLinE

verse 1

Gb:-----------------|
Db:-----------------|
Ab:-----------------|
Db:-0--0--0/8-8-5-5-|

Chorus

Gb:------------------------------|
Db:------------------------------|
Ab:------------------------------|
Db:-11111-33333-555-555-555-555/-|

Verse 2

Gb:------------------|
Db:-------3/---------|
Ab:-----5------------|
Db:-0-3-----8-8-5-5--|


Chorus

Gb:----------------------------------------------|
Db:----------------------------------------------|
Ab:----------------------------------------------|    bass fill (on third time to bridge)
Db:-11111-33333-555-555-(555-555/)---(55555555)--|

Bridge x3

Gb:---------------------------------------|
Db:---------------------------------------|
Ab:-/14-1515-18-17------------------------|
Db:-----------------6--8-8-4-0-0-0-0------|

Bridge x1

Gb:----------------------------------------------|
Db:----------------------------------------------|
Ab:-/14-1515-18-17---------------1-11-1----------|
Db:-----------------5-55-5-1-11-1--------3-33-3--|

*Play verse 1 during solo

Last Chorus (outro)

Gb:-------------------------------|
Db:-----1-------3-------5-----5---|
Ab:-----------------------------5-|
Db:-1111--0-3333--0-5555--5555----|

end on

Gb:------------------------------|
Db:------------------------------|
Ab:------------------------------|
Db:---555-555-555----------------|

            
            
Suggest correction
Creating personal tab
Creating personal tab
You can edit any tab online and save it as your Personal.

You can edit, replace or remove any tab part or add personal notes – all changes will be seen only by you.

Personal tabs can be accessed anytime from any device, even offline.
Learn more »
Give kudos to tab author, rate the tab!
1 2 3 4 5
comments
print report bad tab
guest
Wanna post a correction for this tab? Suggest correction