Oops, an error
Loading. Please wait.

Therapy tab

version 2
version 2

Whole song

28 views 1 this week
no commentswrite comment
1 2 3 4 5
3 more votes to show rating
add to favorites
×
Save as Personal and add changes to this tab that will be seen only by you. Learn more ›
×
You can save this tab as Personal to edit and correct it or add notes. All changes will be seen only by you. Learn more »
launch autoscroll
font size
0
reset
how to read this tab
guitar tuner
edit
Autoscroll
slow
fast
+/-
esc
set tempo
stop
About this tab version
Based off the studio recording. Was this info helpful? Yes No
Finger Eleven
Therapy
Drop Db (Db,Ab,Db,Gb,Bb,Eb)
Tempo 84bpm


   [Verse 1]
eb|-5-----------------------|-------------------------|--------------------------|-------------------------|
Bb|-6-----------------------|-------------------------|-1------------------------|-------------------------|
Gb|-7-----------------------|-------------------------|-2------------------------|-------------------------|
Db|-7-----------------------|-------------------------|-2------------------------|-------------------------|
Ab|-------------------------|-------------------------|-0------------------------|-------------------------|
Db|-------------------------|-------------------------|--------------------------|-------------------------|
              Wide awakened   out of spinning,                 ‘round the safest   orbit

eb|-------------------------|-------------------------|--------------------------|-------------------------|
Bb|-5-----------------------|-------------------5h6---|-3------------------------|-------------------------|
Gb|-5-----------------------|-------------------------|-3------3-----------------|-------------------------|
Db|-5-----------------------|-------------------------|-3------------------------|-------------------------|
Ab|-3-----------------------|-------------------------|-1------------------------|-------------------------|
Db|-------------------------|-------------------------|--------------------------|-------------------------|
         You controlled the   ordinary,                           I was grateful   for it

eb|-5-----------------------|-------------------------|--------------------------|-------------------------|
Bb|-6-----------------------|-------------------------|-1------------------------|-------------------------|
Gb|-7-----------------------|-------------------------|-2------------------------|-------------------------|
Db|-7-----------------------|-------------------------|-2------------------------|-------------------------|
Ab|-------------------------|-------------------------|-0------------------------|-------------------------|
Db|-------------------------|-------------------------|--------------------------|-------------------------|
              Wide awake in   the beginning,                     trembling after   the fall

eb|-------------------------|-------------------------|--------------------------|-------------------------|
Bb|-5-----------------------|-------------------5---6-|-3------------------------|-------------------------|
Gb|-5-----------------------|-------------------5-----|-3------3-----------------|-------------------------|
Db|-5-----------------------|-------------------5-----|-3------------------------|-------------------------|
Ab|-3-----------------------|-------------------3-----|-1------------------------|-------------------------|
Db|-------------------------|-------------------------|--------------------------|-------------------------|
               Only half my   world remembers,                   while the other   half revolves


   [Verse 2 & 3]
eb|--------------------------------|-------------------------------|
Bb|--------------------------------|-------------------------------|
Gb|------9/10\9------9/10\9--------|-----9/10\9------9/10\9--------|
Db|--------------------------------|-------------------------------|
Ab|------7/8-\7------7/8-\7--------|-----7/8-\7------7/8-\7--------|
Db|--0-----------0-----------------|-0-----------0-----------------|
  |                                                                |
eb|--------------------------5\----|-------------------------------|
Bb|--------------------------6\----|-------------------------5-----|
Gb|--------------------------7\----|-------------------------5-----|
Db|--------------------------7\----|-------------------------5-----|
Ab|--------------------------------|-------------------------------|
Db|--------------------------------|-------------------------------|


eb|--------------------------------|-------------------------------|
Bb|--------------------------------|-------------------------------|
Gb|------9/10\9------9/10\9--------|-----9/10\9------9/10\9--------|
Db|--------------------------------|-------------------------------|
Ab|------7/8-\7------7/8-\7--------|-----7/8-\7------7/8-\7--------|
Db|--0-----------0-----------------|-0-----------0-----------------|
  |                                                                |
eb|--------------------------------|-------------------------------|
Bb|--------------------------3-----|-------------------------5-----|
Gb|--------------------------3-----|-------------------------5-----|
Db|--------------------------3-----|-------------------------5-----|
Ab|--------------------------------|-------------------------------|
Db|--------------------------------|-------------------------------|


eb|--------------------------------|-------------------------------|
Bb|--------------------------------|-------------------------------|
Gb|------9/10\9------9/10\9--------|-----9/10\9------9/10\9--------|
Db|--------------------------------|-------------------------------|
Ab|------7/8-\7------7/8-\7--------|-----7/8-\7------7/8-\7--------|
Db|--0-----------0-----------------|-0-----------0-----------------|
  |                                                                |
eb|--------------------------5\----|-------------------------------|
Bb|--------------------------6\----|-------------------------5-----|
Gb|--------------------------7\----|-------------------------5-----|
Db|--------------------------7\----|-------------------------5-----|
Ab|--------------------------------|-------------------------------|
Db|--------------------------------|-------------------------------|


eb|-------------------------------|--------------------------------------|
Bb|-------------------------------|--------------------------------------|
Gb|-----9/10\9------9/10\9--------|-----9/10\9---------------------------|
Db|-------------------------------|--------------------------------------|
Ab|-----7/8-\7------7/8-\7--------|-----7/8-\7---------------------------|
Db|-0-----------0-----------------|-0-----------0------------------------|
  |                                                                      |
eb|-------------------------------|-------------------------10-----------|
Bb|-------------------------3-----|----------------------11----11----10\-|
Gb|-------------------------3-----|-------------------12----------12-10\-|
Db|-------------------------3-----|----------------12--------------------|
Ab|-------------------------------|--------------------------------------|
Db|-------------------------------|--------------------------------------|



   [Pre Chorus]
eb|--------------------------------|-----5-5----5-5----5-5----5-5--|
Bb|--------------------------------|-----6-6----6-6----6-6----6-6--|
Gb|--------------------------------|-----7-7----7-7----7-7----7-7--|
Db|------0-----0-----0-----0-------|-----7-7----7-7----7-7----7-7--|
Ab|--------------------------------|-------------------------------|
Db|--5-----8-----5-----8-----5--8--|--0----------------------------|
  |                                                                |
eb|--------------------------------|-------------------------------|
Bb|--------------------------------|-------------------------------|
Gb|--------------------------------|-------------------------------|
Db|------0-----0-----0-----0-------|-------------------------------|
Ab|--------------------------------|-------------------------------|
Db|--5-----8-----5-----8-----5--8--|--0------0------0------0-------|
                                                                  3x

eb|--------------------------------|-------------------------------|
Bb|--------------------------------|-------------------------------|
Gb|--------------------------------|-------------------------------|
Db|------0-----0-----0-----0-------|------0-----0-----0-----0------|
Ab|--------------------------------|-------------------------------|
Db|--5-----8-----5-----8-----5--8--|--7-----8-----10----8-----7\---|



   [Chorus]
eb|------------------------------------------|-----------------------------------------|
Bb|----------------------------5--5----5-----|----------------------------3--3----3----|
Gb|--14-------7--7---12--------5--5----5-----|--12-------5--5---10--------3--3----3----|
Db|----------------------------5--5----5-----|----------------------------3--3----3----|
Ab|--12-------5--5---10----x---3--3----3-----|--10-------3--3---8-----x---1--1----1----|
Db|-------0----------------x-----------------|-------0----------------x----------------|
  |                                                                                    |
eb|------------------------------------------|-----------------------------------------|
Bb|--3-----------3------3------5--5----5-----|--5-----------5------5------3--3----3----|
Gb|--2-----------2------2------5--5----5-----|--5-----------5------5------3--3----3----|
Db|--0-----------0------0--x---5--5----5-----|--5-----------5------5--x---3--3----3----|
Ab|--0-----------0------0--x---3--3----3-----|--3-----------3------3--x---1--1----1----|
Db|--0-----------0------0--x-----------------|------------------------x----------------|
         Can’t  think of what  to     say,          can’t think of what   to   do.   I

eb|----------------------------------10-10-10--|-------5-----5-5-5-5---5-5-5--|
Bb|----------------------------------11-11-11--|-------6-----6-6-6-6---6-6-6--|
Gb|--10-------3--3-------14----------12-12-12--|-------7-----7-7-7-7---7-7-7--|
Db|----------------------------------12-12-12--|-------7-----7-7-7-7---7-7-7--|
Ab|--8--------1--1-------12--------------------|------------------------------|
Db|-------0------------------------------------|------------------------------|
  |                                                                           |
eb|----------------------------3---------------|------------------------------|
Bb|--3-----------3-------------3---------------|--3---------------------------|
Gb|--3-----------3-------------0---------------|--2---------------------------|
Db|--3-----------3----------x--0---------------|--0---------------------------|
Ab|--1-----------1----------x------------------|--0---------------------------|
Db|-------------------------x--5---------------|--0---------------------------|
        Just   think I might      be losing my        mind

eb|------------------------------------------|-----------------------------------------|
Bb|----------------------------5--5----5-----|----------------------------3--3----3----|
Gb|--14-------7--7---12--------5--5----5-----|--12-------5--5---10--------3--3----3----|
Db|----------------------------5--5----5-----|----------------------------3--3----3----|
Ab|--12-------5--5---10----x---3--3----3-----|--10-------3--3---8-----x---1--1----1----|
Db|-------0----------------x-----------------|-------0----------------x----------------|
  |                                                                                    |
eb|------------------------------------------|-----------------------------------------|
Bb|--3-----------3------3------5--5----5-----|--5-----------5------5------3--3----3----|
Gb|--2-----------2------2------5--5----5-----|--5-----------5------5------3--3----3----|
Db|--0-----------0------0--x---5--5----5-----|--5-----------5------5--x---3--3----3----|
Ab|--0-----------0------0--x---3--3----3-----|--3-----------3------3--x---1--1----1----|
Db|--0-----------0------0--x-----------------|------------------------x----------------|
         Can’t  stop this  ag – o - ny,             cancel     my  ther – a - py  ‘cause

eb|----------------------------------10-10-10--|-------5-----5-5-5----5-5-5--|
Bb|----------------------------------11-11-11--|-------6-----6-6-6----6-6-6--|
Gb|--10-------3--3-------14----------12-12-12--|-------7-----7-7-7----7-7-7--|
Db|----------------------------------12-12-12--|-------7-----7-7-7----7-7-7--|
Ab|--8--------1--1-------12--------------------|-----------------------------|
Db|-------0------------------------------------|-----------------------------|
  |                                                                          |
eb|----------------------------3---------------|-----------------------------|
Bb|--3-----------3-------------3---------------|--3----3-----3-3-3------3-3--|
Gb|--3-----------3-------------0---------------|--2----2-----2-2-2------2-2--|
Db|--3-----------3----------x--0---------------|--0----0-----0-0-0------0-0--|
Ab|--1-----------1----------x------------------|--0----0-----0-0-0------0-0--|
Db|-------------------------x--5---------------|--0----0-----0-0-0------0-0--|
      I just thought of you      and now I feel      fine.


[Verse 3]
[Pre Chorus]
[Chorus]

   [Bridge]
eb|------5-5-----5-5-----5-5-----5-5--|------5-5-----5-5-----5-5-----5-5--|
Bb|------5-5-----5-5-----5-5-----5-5--|------6-6-----6-6-----6-6-----6-6--|
Gb|------5-5-----5-5-----5-5-----5-5--|------7-7-----7-7-----7-7-----7-7--|
Db|-----------------------------------|-----------------------------------|
Ab|-----------------------------------|-----------------------------------|
Db|-----------------------------------|-----------------------------------|
  |                                                                       |
eb|-----------------------------------|-----------------------------------|
Bb|-----------------------------------|-----------------------------------|
Gb|-----------------------------------|-----------------------------------|
Db|----------8\--------------8-7------|-----------------------------------|
Ab|-----------------------------------|-----------------------------------|
Db|--0---------------0----------------|--0-------0-------0-------0--------|


eb|------5-5-----5-5-----5-5-----5-5--|-------------------------------|
Bb|------5-5-----5-5-----5-5-----5-5--|-------------------------------|
Gb|------5-5-----5-5-----5-5-----5-5--|-------------------------------|
Db|-----------------------------------|------0-----0-----0-----0------|
Ab|-----------------------------------|-------------------------------|
Db|-----------------------------------|--7-----8-----10----8-----7\---|
  |                                                                   |
eb|-----------------------------------|-------------------------------|
Bb|-----------------------------------|-------------------------------|
Gb|-----------------------------------|-------------------------------|
Db|----------8\--------------8-7------|------0-----0-----0-----0------|
Ab|-----------------------------------|-------------------------------|
Db|--0---------------0----------------|--7-----8-----10----8-----7\---|


   [Verse 4]
eb|-5-----------------------|-------------------------|-------------------------|-------------------------|
Bb|-6-----------------------|-1-----------------------|-5-----------------------|-3-----------------------|
Gb|-7-----------------------|-2-----------------------|-5-----------------------|-3---3-------------------|
Db|-7-----------------------|-2-----------------------|-5-----------------------|-3-----------------------|
Ab|-------------------------|-0-----------------------|-3-----------------------|-1-----------------------|
Db|-0-----------------------|-------------------------|-------------------------|-------------------------|
        Wide awakened out of spinning,                    ‘round the safest orbit

eb|-5-----------------------|-------------------------|-------------------------|-------------------------|
Bb|-6-----------------------|-1-----------------------|-5-----------------------|-3-----------------------|
Gb|-7-----------------------|-2-----------------------|-5-----------------------|-3---3-------------------|
Db|-7-----------------------|-2-----------------------|-5-----------------------|-3-----------------------|
Ab|-------------------------|-0-----------------------|-3-----------------------|-1-----------------------|
Db|-------------------------|-------------------------|-------------------------|-------------------------|
       You controlled the ordinary,                        I was grateful for it

eb|-------------------------|-------------------------|
Bb|-------------------------|-3-----------------------|
Gb|-------------------------|-3-----------------------|
Db|-------------------------|-3-----------------------|
Ab|-------------------------|-1-----------------------|
Db|-------------------------|-------------------------|
     I was grateful for it.


   [Chorus]
eb|------------------------------------------|-----------------------------------------|
Bb|----------------------------5--5----5-----|----------------------------3--3----3----|
Gb|--14-------7--7---12--------5--5----5-----|--12-------5--5---10--------3--3----3----|
Db|----------------------------5--5----5-----|----------------------------3--3----3----|
Ab|--12-------5--5---10----x---3--3----3-----|--10-------3--3---8-----x---1--1----1----|
Db|-------0----------------x-----------------|-------0----------------x----------------|
  |                                                                                    |
eb|------------------------------------------|-----------------------------------------|
Bb|--3-----------3------3------5--5----5-----|--5-----------5------5------3--3----3----|
Gb|--2-----------2------2------5--5----5-----|--5-----------5------5------3--3----3----|
Db|--0-----------0------0--x---5--5----5-----|--5-----------5------5--x---3--3----3----|
Ab|--0-----------0------0--x---3--3----3-----|--3-----------3------3--x---1--1----1----|
Db|--0-----------0------0--x-----------------|------------------------x----------------|
         Can’t  think of what  to     say,          can’t think of what   to   do.   I

eb|----------------------------------10-10-10--|-------5-----5-5-5-5---5-5-5--|
Bb|----------------------------------11-11-11--|-------6-----6-6-6-6---6-6-6--|
Gb|--10-------3--3-------14----------12-12-12--|-------7-----7-7-7-7---7-7-7--|
Db|----------------------------------12-12-12--|-------7-----7-7-7-7---7-7-7--|
Ab|--8--------1--1-------12--------------------|------------------------------|
Db|-------0------------------------------------|------------------------------|
  |                                                                           |
eb|----------------------------3---------------|------------------------------|
Bb|--3-----------3-------------3---------------|--3---------------------------|
Gb|--3-----------3-------------0---------------|--2---------------------------|
Db|--3-----------3----------x--0---------------|--0---------------------------|
Ab|--1-----------1----------x------------------|--0---------------------------|
Db|-------------------------x--5---------------|--0---------------------------|
        Just   think I might      be losing my        mind

eb|------------------------------------------|-----------------------------------------|
Bb|----------------------------5--5----5-----|----------------------------3--3----3----|
Gb|--14-------7--7---12--------5--5----5-----|--12-------5--5---10--------3--3----3----|
Db|----------------------------5--5----5-----|----------------------------3--3----3----|
Ab|--12-------5--5---10----x---3--3----3-----|--10-------3--3---8-----x---1--1----1----|
Db|-------0----------------x-----------------|-------0----------------x----------------|
  |                                                                                    |
eb|------------------------------------------|-----------------------------------------|
Bb|--3-----------3------3------5--5----5-----|--5-----------5------5------3--3----3----|
Gb|--2-----------2------2------5--5----5-----|--5-----------5------5------3--3----3----|
Db|--0-----------0------0--x---5--5----5-----|--5-----------5------5--x---3--3----3----|
Ab|--0-----------0------0--x---3--3----3-----|--3-----------3------3--x---1--1----1----|
Db|--0-----------0------0--x-----------------|------------------------x----------------|
         Can’t  stop this  ag – o - ny,             cancel     my  ther – a - py  ‘cause


   (Chorus Ending 1.)
eb|----------------------------------10-10-10--|-------5-----5-5-5----5-5-5--|
Bb|----------------------------------11-11-11--|-------6-----6-6-6----6-6-6--|
Gb|--10-------3--3-------14----------12-12-12--|-------7-----7-7-7----7-7-7--|
Db|----------------------------------12-12-12--|-------7-----7-7-7----7-7-7--|
Ab|--8--------1--1-------12--------------------|-----------------------------|
Db|-------0------------------------------------|-----------------------------|
  |                                                                          |
eb|----------------------------3---------------|-----------------------------|
Bb|--3-----------3-------------3---------------|--3----3-----3-3-3------3-3--|
Gb|--3-----------3-------------0---------------|--2----2-----2-2-2------2-2--|
Db|--3-----------3----------x--0---------------|--0----0-----0-0-0------0-0--|
Ab|--1-----------1----------x------------------|--0----0-----0-0-0------0-0--| Repeat last Chorus
Db|-------------------------x--5---------------|--0----0-----0-0-0------0-0--| with Ending 2
      I just thought of you      and now I feel      fine.


   (Chorus Ending 2.)
eb|--------------------------10----------------|--5---------------------------|
Bb|--3-----------------------11----------------|--6---------------------------|
Gb|--3-----------------------12----------------|--7---------------------------|
Db|--3-----------------------12----------------|--7---------------------------|
Ab|--1-----------------------------------------|------------------------------|
Db|--------------------------------------------|------------------------------|
  |                                                                           |
eb|--------------------------3-----------------|------------------------------|
Bb|--3-----------------------3-----------------|--3---------------------------|
Gb|--3-----------------------0-----------------|--2---------------------------|
Db|--3-----------------------0-----------------|--0---------------------------|
Ab|--1-----------------------------------------|--0---------------------------|
Db|--------------------------5-----------------|--0---------------------------|
      I just thought of you      and now I feel              fine.


************************************

| x   Dead note
| /   Slide up
| \   Slide down

************************************

            
            
Suggest correction
Creating personal tab
Creating personal tab
You can edit any tab online and save it as your Personal.

You can edit, replace or remove any tab part or add personal notes – all changes will be seen only by you.

Personal tabs can be accessed anytime from any device, even offline.
Learn more »
Give kudos to tab author, rate the tab!
1 2 3 4 5
comments
print report bad tab
guest
You may want to rate the tab now too:
select rating
Wanna post a correction for this tab? Suggest correction