Oops, an error
Loading. Please wait.

Walking In The Sun chords

by Fink
11,405 views 36 this week
2 commentsread comments
1 2 3 4 5
x 10
add to favorites
×
Save as Personal and add changes to this tab that will be seen only by you. Learn more ›
×
You can save this tab as Personal to edit and correct it or add notes. All changes will be seen only by you. Learn more »
launch autoscroll
font size
0
reset
transpose
0
reset
display chords
guitar tuner
edit
Autoscroll
slow
fast
+/-
esc
set tempo
stop
Author
Strumming
There is no strumming pattern for this song yet. and get +5 IQ
Walking In The Sun (Fink)
Intro: D G D (2x)

verse 1:
========
                 D                            G
Things have been going wrong long enough to know
             D
everything is right.
                                          G
Been walkin' in the dark long enough to know
                  D
Finally seein' the light.

          A                     (G)     
I've been losing long enough to know
G                D
when I find the one.
    A                    (G)
And even a blind man can tell
G                    D
when he's walkin' in the sun.

verse 2:
========

Cried enough tears to know
this feelin' called a smile.
And I've been bottom wrong long enough to know
when I do'it in style.

I've been runnin' long enough to know
there´s no more need to run.
And even a blind man can tell
when he's walkin' in the sun.

verse 3:   (instrumental and backing vocals)
========

verse 4:
========
Well the wind is at my back
and 'm sailing on a ship that's overdue.
Well I've blown so many chances
that I ain't gonna blow this chance with you.

And I've seen enough bad time t'know
the good time's begun.
And even a blind man can tell
when he's walkin' in the sun.
Walkin' in the sun.

            
            
Suggest correction
Creating personal tab
Creating personal tab
You can edit any tab online and save it as your Personal.

You can edit, replace or remove any tab part or add personal notes – all changes will be seen only by you.

Personal tabs can be accessed anytime from any device, even offline.
Learn more »
comments
print report bad tab
2 comments total.
0 reply
Fireheads 54 Jun 06, 2014 02:38 AM

A little bit of my free interpretation on the guitar part.

e|------------------------------------------------------|
B|------------------------------------------------------|
G|------------------------------------------------------|
D|-------------------4h5p4h5p4-4------------------------|
A|------------------------------------------------------|
D|--0--0--5--5--0--0------------------------------------|
D G D

e|------------------------------------------------------|
B|------------------------------------------------------|
G|------------------------------------------------------|
D|--------------------4h5p4h5p4-4-----------------------|
A|-----------------------------------5-4-2--------------|
D|--7--7--5--5--0--0------------------------------------|
A G D

0 reply
chapanoodle 34 Mar 20, 2017 12:40 PM

note to self, capo on 5

guest
You may want to rate the tab now too:
select rating
Wanna post a correction for this tab? Suggest correction