Oops, an error
Loading. Please wait.

Protection Racket ukulele

56 views 1 this week
no commentswrite comment
1 2 3 4 5
2 more votes to show rating
add to favorites
×
Save as Personal and add changes to this tab that will be seen only by you. Learn more ›
×
You can save this tab as Personal to edit and correct it or add notes. All changes will be seen only by you. Learn more »
launch autoscroll
font size
0
reset
transpose
0
reset
display chords
guitar tuner
edit
Autoscroll
slow
fast
+/-
esc
set tempo
stop
Strumming
There is no strumming pattern for this song yet. and get +5 IQ
-------------------------------------------------------------------------------
                         Protection Racket - Fionn Regan
-------------------------------------------------------------------------------
Tabbed by: Jacob Norris [FionnFan]
Email: spotsandstripes@hotmail.co.uk

This works much better on an acoustic guitar.
May not be the right key, but it sounds okay. 
Go easy on me it's my first tab.

Tuning: standard EADGBe

e|--10---10---X--8---X--7--7--X--5--X--3--3--X--5--5-----|
B|--10---10---X--8---X--7--7--X--5--X--3--3--X--5--5-----| *KNOCK KNOCK*
G|--11---11---X--9---X--7--7--X--5--X--4--4--X--5--5-----|
D|--12---12---X--10--X--9--9--X--7--X--5--5--X--7--7-----|
A|-------------------------------------------------------|
E|-------------------------------------------------------|

The next bit goes
(In Barre Chords:)

Be quiet katie there is someone at the hatch
G       F  G   F        G       F      G 
You curse the darkness and I'll strike a match
    F         G   F        G    F        G  
Undoing the latch I tripped on the scales and fell
  Bm        G       Bm                         G 
Just as someone hit the reception bell
Am                        Cm
The ghost of that injury still remains,  my ankle starts to swell just 
    G    F        G  F   G    F     G  F    G     F         G      F   
before it rains
  G    F  G
leaders of nations, wild alsations, crumbling foundations, 
Bm         G        Bm      G       Am                                       
I've lost my patience
      D

These big companies are giving us the squeeze
        Am    C         Am            C
Lets raise our glasses to mr. onassis
D

  Protection racket (hand over the packet)
G     D       C                     
 Rome needs cement (in this event)
G     D         C
Go over to the till katie (the national)
   G            D        C
 Pay this man his rent
G         D       C

It's a standard procedure
       Em            D


e|---------------------------------------------------------------------|
B|---0--X-----1--X----3--X--1--X--3---1--------------------------------|
G|---0--X-----0--X----2--X--0--X--2---0--------------------------------|
D|------X--------X----0--X-----X--0------------------------------------|
A|------X-----3--X----------3--X------3--------------------------------|
E|---3--X--------------------------------------------------------------|

I forgot to mention that grandmas pension
Will ease the rent book tension

The rest of the song follows a regular pattern, and you should figure out the 
strumming pattern. I've tabbed everything you need to know.

A little birdie told me you've been syphoning the poor box
I heard the knitting circle disscusing chubb locks
Whats all the commotion? what do they expect?
With no sign of a promotion I've lost my self respect
You see I built this heap from scratch when I was poor
now they're asking me to hoover the floor
Splash some water over me slap round the face
Did I miss a meeting I don't recognise the place

The plug in the socket burns a hole in the pocket

These big companies are giving us the squeeze
Lets raise our glasses to mr. onassis

Protection racket (hand over the packet)
Rome needs cement (in this event)
Go over to the till katie (the national)
Pay this man his rent

it's a standard procedure 

| /  slide up
| \  slide down
| h  hammer-on
| p  pull-off
| ~  vibrato
| +  harmonic
| x  Mute note
===============================================================================

            
            
Suggest correction
Creating personal tab
Creating personal tab
You can edit any tab online and save it as your Personal.

You can edit, replace or remove any tab part or add personal notes – all changes will be seen only by you.

Personal tabs can be accessed anytime from any device, even offline.
Learn more »
Give kudos to tab author, rate the tab!
1 2 3 4 5
comments
print report bad tab
guest
Wanna post a correction for this tab? Suggest correction