Oops, an error
Loading. Please wait.

Sundown tab

version 2
version 2

Whole song

Interactive

1,474 views 1 this week
no commentswrite comment
1 2 3 4 5
3 more votes to show rating
add to favorites
×
Save as Personal and add changes to this tab that will be seen only by you. Learn more ›
×
You can save this tab as Personal to edit and correct it or add notes. All changes will be seen only by you. Learn more »
launch autoscroll
font size
0
reset
how to read this tab
guitar tuner
edit
Autoscroll
slow
fast
+/-
esc
set tempo
stop
Fireball Ministry - Sundown
From album "Their Rock Is Not Our Rock"

Copyright (c)  Liquor And Poker Music, 2005
Version 1.1 - 2006-08-25

Tabbed by Andreas Larsson (johnnyballe666@hotmail.com)


Tuning: Half step down Drop-Db
eb Bb Gb Db Ab Db


h  - hammer on
p  - pull off


 ||----||
*||----||*  <= repeat
*||----||*
 ||----||

h = hammer-on
p = pull-off
m = mute


Intro riff
eb ||-----------------------------------------------------------------|
Bb ||-----------------------------------------------------------------|
Gb*||-----------------------------------------------------------------|
Db*||----------------------------------------------------3--2h3p2h3p2-|
Ab ||--------5-----------3-----------5-----------3--------------------|
Db ||0---0-------0---0-------0---0-------0---0-------0----------------|

  eb ----------------------------------------------------------------||
  Bb ----------------------------------------------------------------||
  Gb ----------------------------------------------------------------||*
  Db ----------------------------------------------------------------||*
  Ab --------5-----------3-----------6----------5----------3---------||
  Db 0---0-------0---0-------0---0---6----------5----------3---------||

eb ||-----------------------------------------------------------------|
Bb ||-----------------------------------------------------------------|
Gb*||-----------------------------------------------------------------|
Db*||----------------------------------------------------3--2h3p2h3p2-|
Ab ||--------5-----------3-----------5-----------3--------------------|
Db ||0---0-------0---0-------0---0-------0---0-------0----------------|

  eb -------------------------------|--------------------------------||
  Bb -------------------------------|--------------------------------||
  Gb -------------------------------|--------------------------------||*
  Db -------------------------------|--------------------------------||*
  Ab --------5-----------3----------|6----------5----------3---------||
  Db 0---0-------0---0-------0---0--|6----------5----------3---------||
                                    2nd time:
                                    |----------------------------------|
                                    |----------------------------------|
                                    |----------------------------------|
                                    |----------------------------------|
                                    |6---m-----------------------------|
                                    |6---m-----------------------------|
eb |-------------------------------------------------------------------|
Bb |-------------------------------------------------------------------|
Gb |-------------------------------------------------------------------|
Db |-------------------------------------------------------------------|
Ab |-------------------------------------------------------------------|
Db |3---2--------------------------------------------------------------|

Verse x4
eb ||----------------------------------------------------------------|
Bb ||----------------------------------------------------------------|
Gb*||----------------------------------------------------------------|
Db*||----------------------------------------------------------------|
Ab ||--------0-----------0-----------0-------0-------0---3---2---0---|
Db ||0---0---0---0---0---0---0---0---0---0---0---0---0---3---2---0---|

  eb ----------------------------------------------------------------||
  Bb ----------------------------------------------------------------||
  Gb ----------------------------------------------------------------||*
  Db ----------------------------------------------------------------||*
  Ab --------0-----------0-------6-------6---6---6---6---5---3---0---||
  Db 0---0---0---0---0---0---0---6-------6---6---6---6---5---3---0---||

Chorus
eb ||----------------------------------------------------------------|
Bb ||----------------------------------------------------------------|
Gb*||----------------------------------------------------------------|
Db*||7---7---5---7-------7-----------5---5---3---5-------5-----------|
Ab ||5---5---5---5-------5-----------3---3---3---3-------3-----------|
Db ||----------------------------------------------------------------|

  eb ----------------------------------------------------------------||
  Bb ----------------------------------------------------------------||
  Gb ----------------------------------------------------------------||*
  Db 3---3---2---3-------3-----------5---5---3---5-------5-----------||*
  Ab 1---1---1---1-------1-----------3---3---3---3-------3-----------||
  Db ----------------------------------------------------------------||


* Intro riff *


eb  |------------------------------------------------------|
Bb  |------------------------------------------------------|
Gb  |------------------------------------------------------|
Db  |7--------7---------7----------------------------------|
Ab  |5--------5---------5--------5---7---8---7---6---6-----|
Db  |--------------------------------------------6---6-----|

  eb ------------------------------------------------------|
  Bb ------------------------------------------------------|
  Gb ------------------------------------------------------|
  Db 7--------7---------7----------------------------------|
  Ab 5--------5---------5--------5---7---8---7---6---6-----|
  Db --------------------------------------------6---6-----|

  eb ------------------------------------------------------|
  Bb ------------------------------------------------------|
  Gb ------------------------------------------------------|
  Db 7--------7---------7----------------------------------|
  Ab 5--------5---------5--------5---7---8---7---6---6-----|
  Db --------------------------------------------6---6-----|

  eb ------------------------------------------------------||
  Bb ------------------------------------------------------||
  Gb --------------------------------------------7---------||*
  Db 7--------7---------7--------------------7-------7---6-||*
  Ab 5--------5---------5--------5---7---8-----------------||
  Db ------------------------------------------------------||


* Solo *


Outro
eb ||------------------------------------------------------|
Bb ||------------------------------------------------------|
Gb*||--------------------------------------------7---------|
Db*||7--------7---------7--------------------7-------7---6-|
Ab ||5--------5---------5--------5---7---8-----------------|
Db ||------------------------------------------------------|

  eb ------------------------------------------------------||
  Bb ------------------------------------------------------||
  Gb --------------------------------------------7---------||*
  Db 7--------7---------7--------------------7-------7---6-||*
  Ab 5--------5---------5--------5---7---8-----------------||
  Db ------------------------------------------------------||

            
            
Suggest correction
Creating personal tab
Creating personal tab
You can edit any tab online and save it as your Personal.

You can edit, replace or remove any tab part or add personal notes – all changes will be seen only by you.

Personal tabs can be accessed anytime from any device, even offline.
Learn more »
Give kudos to tab author, rate the tab!
1 2 3 4 5
comments
print report bad tab
guest
You may want to rate the tab now too:
select rating
Wanna post a correction for this tab? Suggest correction