Oops, an error
Loading. Please wait.

Flower Girl tab

16 views 1 this week
no commentswrite comment
1 2 3 4 5
3 more votes to show rating
add to favorites
×
Save as Personal and add changes to this tab that will be seen only by you. Learn more ›
×
You can save this tab as Personal to edit and correct it or add notes. All changes will be seen only by you. Learn more »
launch autoscroll
font size
0
reset
how to read this tab
guitar tuner
edit
Autoscroll
slow
fast
+/-
esc
set tempo
stop
About this tab version
No version of song up. sounds good on acoustic or electric. Was this info helpful? Yes No
https://firstthursday.bandcamp.com/track/flower-girl

[Intro]
D|----------------------------------|
A|----------------------------------|
F|----------------------------------|
C|----------------------------------|
G|--3-3-3-3-2-2-2-2-0---------------|
D|----------------------------------| (x4)

D|-------0-------0-------0-------0-|
A|-----1-------0-------1-------1---|
F|---0-------0-------2-------2-----|
C|---------------------------------|
G|-3-------2-------0-------0-------|
D|---------------------------------|
Goodbye to you, goodbye to me, goodbye my love.

D|-------0-------0-------0-------0-|
A|-----1-------0-------1-------1---|
F|---0-------0-------2-------2-----|
C|---------------------------------|
G|-3-------2-------0-------0-------|
D|---------------------------------|
Goodbye to you, goodbye to me, please fly me dove.

D|-------0-------0-------0-------0-|
A|-----1-------0-------1-------1---|
F|---0-------0-------2-------0-----|
C|-----------------3---------------|
G|-3-------2---------------3-------|
D|---------------------------------|
Goodbye to you, goodbye to me, to the skies and to the seas

D|-------0-------0-------0---------|
A|-----1-------0-------1---------1-|
F|---0-------0-------2-------0-2---|
C|---------------------------------|
G|-3-------2-------0-------0-------|
D|---------------------------------|
Goodbye to you, goodbye to me, goodbye my love

D|---0-------0-------0-------0-------0-------0-------0-------0-----|
A|-------1-------1-------1-------1-------1-------1-------1-------1-|
F|-----2-------2-------0-------0-------2-------2-------0-------0---|
C|-3-------3-----------------------3-------3-----------------------|
G|-----------------3-------3-----------------------3-------3-------|
D|-----------------------------------------------------------------|

[Verse 1]
D|---0-------0-------0-------0-------0-------0-------0-------0-----|
A|-------1-------1-------1-------1-------1-------1-------1-------1-|
F|-----2-------2-------0-------0-------2-------2-------0-------0---|
C|-3-------3-----------------------3-------3-----------------------|
G|-----------------3-------3-----------------------3-------3-------|
D|-----------------------------------------------------------------|
Who are you? 
You’re not who I thought you were 
How dare you? 
With voice so damn impure, tell me 

[Pre-Chorus]
D|---------------------------------|
A|---3---3---1---1---1---1---1---1-|
F|-----4-------2-------0-------0---|
C|-5-------3-----------------------|
G|-----------------3-------3-------|
D|---------------------------------|(x4)
You would never leave me 
After everything you've done just let me be 
I still say "I love you" 

[Chorus]
D|---0---------0-------0-------0-----|
A|-------1p0-------0-------1-------1-|
F|-----0---------0-------2-------2---|
C|-----------------------------------|
G|-3---------2-------0-------0-------|
D|-----------------------------------|
The sky is pink for you, my flower girl 

D|---0---------0-------0-------0-----|
A|-------1p0-------0-------1-------1-|
F|-----0---------0-------2-------2---|
C|-----------------------------------|
G|-3---------2-------0-------0-------|
D|-----------------------------------|
The sky is painted red for you, my dear 

D|---0---------0-------0---0-------0-------|
A|-------1p0-------0-----------1-------1p0-|
F|-----0---------0-----------2-------0-----|
C|-----------------------3-----------------|
G|-3---------2-------0-----------3---------|
D|-----------------------------------------|
The clouds are ivory, and I know you cannot see them, but 

D|---0---------0-------0-------------|
A|-------1p0-------0-------1-------1-|
F|-----0---------0-------2-----0-2---|
C|-----------------------------------|
G|-3---------2-------0-------0-------|
D|-----------------------------------|
The sky is pink for you, my flower girl 

D|---0-------0-------0-------0-------0-------0-------0-------0-----|
A|-------1-------1-------1-------1-------1-------1-------1-------1-|
F|-----2-------2-------0-------0-------2-------2-------0-------0---|
C|-3-------3-----------------------3-------3-----------------------|
G|-----------------3-------3-----------------------3-------3-------|
D|-----------------------------------------------------------------|

[Verse 2]
D|---0-------0-------0-------0-------0-------0-------0-------0-----|
A|-------1-------1-------1-------1-------1-------1-------1-------1-|
F|-----2-------2-------0-------0-------2-------2-------0-------0---|
C|-3-------3-----------------------3-------3-----------------------|
G|-----------------3-------3-----------------------3-------3-------|
D|-----------------------------------------------------------------|
You left me 
I don’t know where to go 
Just to hear you 
I would sell my soul 

[Pre-Chorus]
D|---------------------------------|
A|---3---3---1---1---1---1---1---1-|
F|-----4-------2-------0-------0---|
C|-5-------3-----------------------|
G|-----------------3-------3-------|
D|---------------------------------|(x4)
I always thought of what could be 
After everything I wish that it was me 
I still say "I love you" 

[Chorus]
D|---0---------0-------0-------0-----|
A|-------1p0-------0-------1-------1-|
F|-----0---------0-------2-------2---|
C|-----------------------------------|
G|-3---------2-------0-------0-------|
D|-----------------------------------|
Where did you go my flower girl? 

D|---0---------0-------0-------0-----|
A|-------1p0-------0-------1-------1-|
F|-----0---------0-------2-------2---|
C|-----------------------------------|
G|-3---------2-------0-------0-------|
D|-----------------------------------|
I painted the moon white for you dear 

D|---0---------0-------0---0-------0-------|
A|-------1p0-------0-----------1-------1p0-|
F|-----0---------0-----------2-------0-----|
C|-----------------------3-----------------|
G|-3---------2-------0-----------3---------|
D|-----------------------------------------|
The stars are all I see, and they’re also all I need 

D|---0---------0-------0-------0-----|
A|-------1p0-------0-------1-------1-|
F|-----0---------0-------2-------2---|
C|-----------------------------------|
G|-3---------2-------0-------0-------|
D|-----------------------------------|
The sky is pink for you, my flower girl 

C              Em            Am  Am
 Where did you go my flower girl? 
(The sky is pink for you, my flower girl) 
   C                Em            Am Am
I painted the moon white for you dear 
(The sky is painted red for you, my dear)
      C              Em               F          C 
The stars are all I see, and they’re also all I need 
(The clouds are ivory, and I know you can not see them, but) 
     C              Em              Am Am
The sky is pink for you, my flower girl 
(The sky is pink for you, my flower girl) 

[Outro]
            C
Goodbye to you
           Em 
Goodbye to me
            Am Am 
Goodbye my love 
           C
Goodbye to you
           Em 
Goodbye to me
               Am Am 
Please fly my dove 
            C
Goodbye to you
           Em 
Goodbye to me 
         F               C
To the skies and to the seas 
            C
Goodbye to you 
           Em
Goodbye to me
            Am Am 
Goodbye my love

D|-0---------0---------0-------------0---|
A|---1---1p0---0---0-----1---1---------1-|
F|-----0---------0---------2-------------|
C|---------------------------------------|
G|-3---------2-------0-------------------|
D|---------------------------------------|(x2)

D|-0------------1----------------0---------0-------0-|
A|---1---1p0-------3---3-1---------1---1p0---0---0-1-|
F|-----2---0---------2---2-----------0---------0---0-|
C|--------------0----------------------------------2-|
G|-0-------2-------------0-------3---------2-------3-|
D|---------------------------------------------------|


************************************

| p   Pull-off

************************************

            
            
Suggest correction
Creating personal tab
Creating personal tab
You can edit any tab online and save it as your Personal.

You can edit, replace or remove any tab part or add personal notes – all changes will be seen only by you.

Personal tabs can be accessed anytime from any device, even offline.
Learn more »
Give kudos to tab author, rate the tab!
1 2 3 4 5
comments
print report bad tab
guest
You may want to rate the tab now too:
select rating
Wanna post a correction for this tab? Suggest correction