Oops, an error
Loading. Please wait.

Black Mammoth tab

version 1
version 1

Whole song

Interactive

610 views 27 this week
1 commentread comment
1 2 3 4 5
3 more votes to show rating
add to favorites
×
Save as Personal and add changes to this tab that will be seen only by you. Learn more ›
×
You can save this tab as Personal to edit and correct it or add notes. All changes will be seen only by you. Learn more »
launch autoscroll
font size
0
reset
how to read this tab
guitar tuner
edit
Autoscroll
slow
fast
+/-
esc
set tempo
stop
Author
Difficulty
Tuning = 7-String Drop G (GDGCFAd)

[Intro Part 1]
(Guitar 1)                          1st Ending                       2nd Ending
d|---------------------------------|----------------------------5---|------------------------------------|
A|---------------------------------|----6-----------9---------------|----6-------------------------------|
F|-------------------------9-------|--------------------------------|----------------9-------------------|
C|10-----------7-------------------|--------------------------------|----------------------------7-------|
G|---------------------------------|--------------------------------|------------------------------------|
D|---------------------------------|--------------------------------|------------------------------------|
G|---------------------------------|--------------------------------|------------------------------------|
  Let Ring

(Guitar 2)
  t      t      t      t       t      t      t      t
d|----------------------------|----------------------------|
A|----------------------------|----------------------------|
F|----------------------------|----------------------------|
C|----------------------------|----------------------------|(x3)
G|----------------------------|----------------------------|
D|----------------------------|----------------------------|
G|12-8-5-12-8-5-12-8-5-12-8-5-|12-8-5-12-8-5-12-8-5-12-8-5-|

  t      t      t      t       t      t      t      t
d|----------------------------|----------------------------|
A|----------------------------|----------------------------|
F|----------------------------|----------------------------|
C|----------------------------|----------------------------|
G|----------------------------|----------------------------|
D|----------------------------|----------------------------|
G|12-7-3-12-7-3-12-7-3-12-7-3-|12-7-3-12-7-3-12-7-3-12-7-3-|

[Intro Part 2]
(Guitar 1 and 2)
d|------------------------------------|----------------------------------|
A|------------------------------------|----------------------------------|
F|------------------------------------|----------------------------------|
C|------------------------------------|----------------------------------|
G|------------------------------------|----------------------------------|
D|------------------------------------|----------------------------------|
G|0---1--p0---0---0---13-13-13-13-0-0-|13-13-0-0-0-0-0-0-0-0-0-0-0-0-0-0-|
  PM-----|    PM-----|            PM-|       PM-------------------------|

d|----------------------------|----------------------------|
A|----------------------------|----------------------------|
F|----------------------------|----------------------------|
C|----------------------------|----------------------------|
G|----------------------------|----------------------------|
D|----------------------------|----------------------------|
G|12-8-5-12-8-5-12-8-5-12-8-5-|12-8-5-12-8-5-12-8-5-12-8-5-|

d|----------------------------|----------------------------|
A|----------------------------|----------------------------|
F|----------------------------|----------------------------|
C|----------------------------|----------------------------|
G|----------------------------|----------------------------|
D|----------------------------|----------------------------|
G|12-7-3-12-7-3-12-7-3-12-7-3-|12-7-3-12-7-3-12-7-3-12-7-3-|

d|------------------------------------|----------------------------------|
A|------------------------------------|----------------------------------|
F|------------------------------------|----------------------------------|
C|------------------------------------|----------------------------------|
G|------------------------------------|----------------------------------|
D|------------------------------------|----------------------------------|
G|0---1--p0---0---0---13-13-13-13-0-0-|13-12-0-0-0-0-0-0-0-0-0-0-0-0-0-0-|
  PM-----|    PM-----|            PM-|       PM-------------------------|

  1st Ending
d|----------------------------------|--------------------------0-------|
A|----------------------------------|--------------------------0-------|
F|----------------------------------|--------------------------0-------|
C|----------------------------------|----------------------------------|
G|8--8--------7-7-7-----------------|8--8--------7-7-7-----------------|
D|12-12-------6-6-6-----------------|12-12-------6-6-6-----------------|
G|------0-----------0-----1-1-1-0---|------0-----------0-----1---------|
        PM-----|    PM-----|    PM-|       PM-----|    PM-----|

  2nd Ending
d|--------------------------------|--------------------------------|
A|--------------------------------|--------------------------------|
F|--------------------------------|--------------------------------|
C|--------------------------------|--------------------------------|
G|--------------------------------|------------------------7-------|
D|--------------------------------|------------------------6-------|
G|1-1-0-----1-1-1-0-----1-1-1-0---|1-1-0-----1-1-1-0-----0---------|
      PM-----|    PM-----|    PM-|     PM-----|    PM-----|

[Break]
(Guitar 1)
d|------------------------|------------------------|------------------------|------------------------|
A|------------------------|------------------------|------------------------|------------------------|
F|------------------------|------------------------|------------------------|------------------------|
C|------------------------|------------------------|------------------------|------------------------|
G|------------------------|------------------------|------------------------|----------------x\------|
D|------------------------|------------------------|------------------------|----------------x\------|
G|0-----------------------|0-----------------------|8-----------------------|7---------------x\--19\-|

(Guitar 2)                          1st Ending                       2nd Ending
d|---------------------------------|----------------------------5---|------------------------------------|
A|---------------------------------|----6-----------9---------------|----6-------------------------------|
F|-------------------------9-------|--------------------------------|----------------9-------------------|
C|10-----------7-------------------|--------------------------------|----------------------------7-------|(x2)
G|---------------------------------|--------------------------------|------------------------------------|
D|---------------------------------|--------------------------------|------------------------------------|
G|---------------------------------|--------------------------------|------------------------------------|

[Verse 1]
(Guitar 1 and 2)
d|--------------------------------|----------------------------------|
A|--------------------------------|----------------------------------|
F|--------------------------------|----------------------------------|
C|--------------------------------|----------------------------------|
G|--------------------------------|------------------------------8-8-|
D|----7-7-----8-8-5-5-----5-5-8-8-|12-12-8-8-------------------------|
G|0-0-----0-0---------0-0---------|----------0-0-0-0-0-0-0-0-0-0-----|
  PM-|    PM-|        PM-|                   PM-----------------|

  1st Ending                           2nd Ending
d|------------------------------------|--------------------------------------|
A|------------------------------------|--------------------------------------|
F|------------------------------------|--------------------------------------|
C|12-12-------------10-10-------------|12-12-------------10-10---------------|(x2)
G|------8-8-0-0-7-7-------7-7-----7-7-|------8-8-0-0-7-7-------7-7-----------|
D|----------------------------8-8-----|----------------------------10-10-8-8-|
G|------------------------------------|--------------------------------------|
            PM-|                                 PM-|

  t       t       t       t        t       t       t       t
d|--------------------------------|--------------------------------|
A|--------------------------------|--------------------------------|
F|--------------------------------|--------------------------------|
C|--------------------------------|--------------------------------|
G|--------------------------------|--------------------------------|
D|--------------------------------|--------------------------------|
G|17-12-8-17-12-8-17-12-8-17-12-8-|17-12-8-17-12-8-17-12-8-17-12-8-|

  t       t       t       t        t       t       t       t
d|--------------------------------|--------------------------------|
A|--------------------------------|--------------------------------|
F|--------------------------------|--------------------------------|
C|--------------------------------|--------------------------------|
G|--------------------------------|--------------------------------|
D|--------------------------------|--------------------------------|
G|15-12-8-15-12-8-15-12-8-15-12-8-|15-12-8-15-12-8-15-12-8-15-12-8-|

  t      t      t      t       t      t      t      t
d|----------------------------|----------------------------|
A|----------------------------|----------------------------|
F|----------------------------|----------------------------|
C|----------------------------|----------------------------|
G|----------------------------|----------------------------|
D|----------------------------|----------------------------|
G|12-8-5-12-8-5-12-8-5-12-8-5-|12-8-5-12-8-5-12-8-5-12-8-5-|

  t      t      t      t
d|----------------------------|----------------------------|
A|----------------------------|----------------------------|
F|----------------------------|----------------------------|
C|----------------------------|----------------------------|
G|----------------------------|----------------------------|
D|----------------------------|3---------------------------|
G|12-7-3-12-7-3-12-7-3-12-7-3-|3---------------------------|

[Chorus]
(Guitar 1)
d|--------------------------------|--------------------------------|--------------------------------|
A|--------------------------------|--------------------------------|--------------------------------|
F|--------------------------------|--------------------------------|--------------------------------|
C|7-------------------------------|------------------------7-------|7-------5-----------------------|
G|--------------------------------|--------------------------------|--------------------------------|
D|5-------------------------------|------------------------5-------|5-------3-----------------------|
G|--------0-------0---0---0-------|0-------0-------0---------------|----------------0---0---0-------|
          PM----------------------------------------------|                         PM-------------|

d|---------------------------------|---------------------------------|--------------------------------|
A|---------------------------------|---------------------------------|--------------------------------|
F|---------------------------------|---------------------------------|--------------------------------|
C|------------------------10-------|10-------7-----------------------|------------------------9-------|
G|---------------------------------|---------------------------------|--------------------------------|
D|------------------------8--------|8--------5-----------------------|------------------------7-------|
G|0-------0-------0----------------|-----------------0---0---0-------|0-------0-------0---------------|
  PM---------------------|                           PM--------------------------------------|

d|---------------------------------|--------------------------------|
A|---------------------------------|--------------------------------|
F|---------------------------------|--------------------------------|
C|7---------------10---------------|5---------------5---7---5-------|(x2)
G|---------------------------------|--------------------------------|
D|5---------------8----------------|3---------------3---5---3-------|
G|--------0---0------------0---0---|--------0---0-------------------|
          PM-----|         PM-----|         PM-----|

(Guitar 2)
d|---------------------------------|---------------------------------|---------------------------------|
A|---------------------------------|---------------------------------|---------------------------------|
F|---------------------------------|---------------------------------|---------------------------------|
C|10-------------------------------|------------------------10-------|10-------9-----------------------|
G|---------------------------------|---------------------------------|---------------------------------|
D|8--------------------------------|------------------------8--------|8--------7-----------------------|
G|---------0-------0---0---0-------|0-------0-------0----------------|-----------------0---0---0-------|
           PM----------------------------------------------|                           PM-------------|

d|---------------------------------|----------------------------------|---------------------------------|
A|---------------------------------|----------------------------------|---------------------------------|
F|---------------------------------|----------------------------------|---------------------------------|
C|------------------------14-------|14-------10-----------------------|------------------------12-------|
G|---------------------------------|----------------------------------|---------------------------------|
D|------------------------12-------|12-------8------------------------|------------------------10-------|
G|0-------0-------0----------------|------------------0---0---0-------|0-------0-------0----------------|
  PM---------------------|                            PM--------------------------------------|

d|----------------------------------|---------------------------------|
A|----------------------------------|---------------------------------|
F|----------------------------------|---------------------------------|
C|10---------------14---------------|9---------------9---10---9-------|(x2)
G|----------------------------------|---------------------------------|
D|8----------------12---------------|7---------------7---8----7-------|
G|---------0---0------------0---0---|--------0---0--------------------|
           PM-----|         PM-----|         PM-----|

[Verse 2]
(Guitar 1 and 2)
d|--------------------------------|----------------------------------|
A|--------------------------------|----------------------------------|
F|--------------------------------|----------------------------------|
C|--------------------------------|----------------------------------|
G|--------------------------------|------------------------------8-8-|
D|----7-7-----8-8-5-5-----5-5-8-8-|12-12-8-8-------------------------|
G|0-0-----0-0---------0-0---------|----------0-0-0-0-0-0-0-0-0-0-----|
  PM-|    PM-|        PM-|                   PM-----------------|

  1st, 3rd Ending                      2nd Ending                             4th Ending
d|------------------------------------|--------------------------------------|-------------------------------|
A|------------------------------------|--------------------------------------|-------------------------------|
F|------------------------------------|--------------------------------------|-------------------------------|
C|12-12-------------10-10-------------|12-12-------------10-10---------------|12-12-------------5---7---5----|
G|------8-8-0-0-7-7-------7-7-----7-7-|------8-8-0-0-7-7-------7-7-----------|------8-8-0-0-7-7--------------|
D|----------------------------8-8-----|----------------------------10-10-8-8-|------------------3---5---3----|
G|------------------------------------|--------------------------------------|-------------------------------|
            PM-|                                 PM-|                                   PM-|   Only one guitar

[Outro]
(Guitar 1 and 2)
d|------------------------|------------------------|------------------------|--------------0-0-0-0-0-|
A|------------------------|------------------------|------------------------|--------------0-0-0-0-0-|
F|------------------------|------------------------|------------------------|--------------4-4-4b5r4-|
C|------------------------|------------------------|------------------------|------------------------|
G|------------------------|------------------------|------------------------|------------------------|
D|------------------------|------------------------|------------------------|8-8-8-5-5-5-5-----------|
G|0-----0-0-0-0-0-0-0-0-0-|0-0-0-0-0-0-0-0-0-0-0-0-|0-0-0-0-0-0-0-0-0-0-0-0-|------------------------|
        PM--------------------------------|      PM---------------------------------------|
                                                                                                 N.H.
d|------------------------|--------------0-0-0-0---|0-----------------------|--------------------x------|
A|------------------------|--------------0-0-0-0---|0-----------------------|---------------------x-----|
F|------------------------|--------------5-5-5-5---|5-----------------------|----------------------x----|
C|------------------------|------------------------|------------------------|-----------------------x---|(x4)
G|------------------------|------------------------|------------------------|------------------------x--|
D|------------------------|------------------------|------------------------|8-8-8-5-5-5-5------------x-|
G|0-----0-0-0-0-0-0-0-0-0-|0-0-0-0-0-0-0---------0-|--0-0-0-0-0-0-0-0-0-0-0-|--------------0------------|
        PM------------------------------|        PM   PM----------------------------------------|



************************************

| p   Pull-off
| \   Slide down
| PM  Palm mute
| r   Release
| b   Bend
| x   Dead note
| N.H.  Natural Harmonic

************************************

            
            
Suggest correction
Creating personal tab
Creating personal tab
You can edit any tab online and save it as your Personal.

You can edit, replace or remove any tab part or add personal notes – all changes will be seen only by you.

Personal tabs can be accessed anytime from any device, even offline.
Learn more »
Give kudos to tab author, rate the tab!
1 2 3 4 5
comments
print report bad tab
1 comment total.
+1 reply
LMBozovich 1,346 Jun 24, 2017 01:14 AM

Guys, gals, thanks for viewing this tab. Make sure to rate.

guest
You may want to rate the tab now too:
select rating
Wanna post a correction for this tab? Suggest correction