Oops, an error
Loading. Please wait.

The Conqueror tab

version 1
version 1

Whole song

  • This tab has both guitars instead of the one, like in the Tab Pro Version.

Interactive

67 views 1 this week
1 commentread comment
1 2 3 4 5
3 more votes to show rating
add to favorites
×
Save as Personal and add changes to this tab that will be seen only by you. Learn more ›
×
You can save this tab as Personal to edit and correct it or add notes. All changes will be seen only by you. Learn more »
launch autoscroll
font size
0
reset
how to read this tab
guitar tuner
edit
Autoscroll
slow
fast
+/-
esc
set tempo
stop
About this tab version
This tab has both guitars instead of the one, like in the Tab Pro Version. Was this info helpful? Yes No
[Intro]
(Guitar 1 and 2)
e|------------------------------------------------|---------------------------------------------|
B|------------------------------------------------|---------------------------------------------|
G|------------------------------------------------|---------------------------------------------|
D|------------------------------------------------|---------------------------------------------|
A|------------------------------------------------|---------------------------------------------|
E|2---2---2---2---2---2---------------2---2---2---|------------2---2---2---3---3---3------------|
A|2---2---2---2---2---2---3-3-3-3-3-3-2---2---2---|3-3-3-3-3-3-2---2---2---------------5-----3--|
  PM---------------------|            PM---------|             PM---------|

e|------------------------------------------------|------------------------------------------------|
B|------------------------------------------------|------------------------------------------------|
G|------------------------------------------------|------------------------------------------------|
D|------------------------------------------------|------------------------------------------------|(x2)
A|------------------------------------------------|------------------------------------------------|
E|2---2---2---2---2---2---------------2---2---2---|------------2---2---2---3-----------------------|
A|2---2---2---2---2---2---3-3-3-3-3-3-2---2---2---|3-3-3-3-3-3-2---2---2-------2---2---5---2---3---|
  PM---------------------|            PM---------|             PM---------|

e|--------------------------------|
B|--------------------------------|
G|--------------------------------|
D|--------------------------------|
A|--------------------------------|
E|2-------------------------------|
A|2-------------------------------|

[Verse]
(Guitar 1)
e|--------------------------------|--------------------------------|
B|--------------------------------|--------------------------------|
G|--------------------------------|--------------------------------|
D|--------------------------------|--------------------------------|
A|--------------------------------|--------------------------------|
E|2---2---2---2---2-------2---2---|2---2---2-2-2-2-----------------|
A|2---2---2---2-----------2---2---|2---2-----------3-3-3-3-2-2-2-2-|
  PM-------------|        PM--------------|

(Guitar 1 and 2)
e|--------------------------------|--------------------------------|
B|--------------------------------|--------------------------------|
G|--------------------------------|--------------------------------|
D|--------------------------------|--------------------------------|
A|--------------------------------|--------------------------------|
E|2---2---2---2---1-------2---2---|2---2---1-----------------------|
A|2---2---2---2-----------2---2---|2---2-----------2-------1-------|
  PM-------------|        PM--------------|

e|--------------------------------|--------------------------------|
B|--------------------------------|--------------------------------|
G|--------------------------------|--------------------------------|
D|--------------------------------|--------------------------------|
A|--------------------------------|--------------------------------|
E|2---2---2---2---2-------2---2---|2---2---2-----------------------|
A|2---2---2---2-----------2---2---|2---2-----------3-------2-------|
  PM-------------|        PM--------------|

e|--------------------------------|--------------------------------|
B|--------------------------------|--------------------------------|
G|--------------------------------|--------------------------------|
D|--------------------------------|--------------------------------|
A|--------------------------------|--------------------------------|
E|2---2---2---2---1-------2---2---|0-------2---2---3-------2-------|
A|2---2---2---2-----------2---2---|0-------2---2---3-------2-------|
  PM-------------|        PM-----|         PM---------------------|

[Breakdown 1]
Time Signature = 15/8
(Guitar 1 and 2)
e|--------------------------------|--------------------------------|
B|--------------------------------|--------------------------------|
G|--------------------------------|--------------------------------|
D|--------------------------------|--------------------------------|
A|--------------------------------|--------------------------------|
E|2-2-2---2-2-2-------2-2-2-2-2-2-|2-------2-2-2---2-2-2-------2---|
A|2-2-2---2-2-2-------2-2-2-2-2-2-|2-------2-2-2---2-2-2-------2---|
  PM--------------|   PM---------------|   PM--------------|   PM-|

e|--------------------------------|----------------|
B|--------------------------------|----------------|
G|--------------------------------|----------------|
D|--------------------------------|----------------|
A|--------------------------------|----------------|
E|2-2-2-------2---2-2-2---2-2-2---|3-------2-------|
A|2-2-2-------2---2-2-2---2-2-2---|3-------2-------|
  PM------|   PM----------------------------------|

e|--------------------------------|--------------------------------|
B|--------------------------------|--------------------------------|
G|--------------------------------|--------------------------------|
D|--------------------------------|--------------------------------|
A|--------------------------------|--------------------------------|
E|2-2-2---2-2-2-------2-2-2-2-2-2-|2-------2-2-2---2-2-2-------2---|
A|2-2-2---2-2-2-------2-2-2-2-2-2-|2-------2-2-2---2-2-2-------2---|
  PM--------------|   PM---------------|   PM--------------|   PM-|

e|--------------------------------|--------------------------------|
B|--------------------------------|--------------------------------|
G|--------------------------------|--------------------------------|
D|--------------------------------|--------------------------------|(x2)
A|--------------------------------|--------------------------------|
E|2-2-2-------2---2-2-2---2-2-2---|5-------3-------3-------2-------|
A|2-2-2-------2---2-2-2---2-2-2---|5-------3-------3-------2-------|
  PM------|   PM--------------------------------------------------|

[Pre-Hook]
(Guitar 1)
e|----------------|----------------|---------------|------------------------|
B|----------------|----------------|---------------|------------------------|
G|----------------|----------------|---------------|------------------------|
D|----------------|----------------|---------------|------------------------|
A|----------------|----------------|---------------|------------------------|
E|2---------------|3-----------5---|2--------------|3-------2-2-2-2-2-------|
A|2---------------|3-----------5---|2--------------|3-------2-2-2-2-2-------|


(Guitar 2)
e|------------------------------------|--------------------------------------|
B|------------------------------------|--------------------------------------|
G|------------------------------------|--------------------------------------|
D|------------------------------------|--------------------------------------|
A|------------------------------------|--------------------------------------|
E|7-7-0-0-0-0-7-7-8-8-0-0-12-12-11-11-|0-0-7-7-8-8-12-12-11-11-8-8-11-11-8-8-|
A|------------------------------------|--------------------------------------|

                                       1st Ending                           2nd Ending
e|------------------------------------|------------------------------------|--------------------------------|
B|------------------------------------|------------------------------------|--------------------------------|
G|------------------------------------|------------------------------------|--------------------------------|
D|------------------------------------|------------------------------------|--------------------------------|
A|------------------------------------|------------12-12-11-11-7-7-8-8-----|--------------------------------|
E|7-7-0-0-0-0-7-7-8-8-0-0-12-12-11-11-|0-0-7-7-8-8---------------------8-8-|2---2---2---2---2---------------|
A|------------------------------------|------------------------------------|2---2---2---2---2---------------|

[Hook]
(Guitar 1 and 2)
e|------------------------------------|--------------------------------------|
B|------------------------------------|--------------------------------------|
G|------------------------------------|--------------------------------------|
D|------------------------------------|--------------------------------------|
A|------------------------------------|--------------------------------------|
E|7-7-0-0-0-0-7-7-8-8-0-0-12-12-11-11-|0-0-7-7-8-8-12-12-11-11-8-8-11-11-8-8-|
A|------------------------------------|--------------------------------------|

  1st Ending
e|------------------------------------|------------------------------------|
B|------------------------------------|------------------------------------|
G|------------------------------------|------------------------------------|
D|------------------------------------|------------------------------------|
A|------------------------------------|------------12-12-11-11-7-7-8-8-----|
E|7-7-0-0-0-0-7-7-8-8-0-0-12-12-11-11-|0-0-7-7-8-8---------------------8-8-|
A|------------------------------------|------------------------------------|

  2nd Ending
e|----------------------------------|--------------------------------|
B|----------------------------------|--------------------------------|
G|----------------------------------|--------------------------------|
D|----------------------------------|--------------------------------|
A|----------------------------------|--------------------------------|
E|7-7-0-0-0-0-7-7-8-8-0-0-12-12-7---|8---5---7---3---5---2---3---0---|
A|----------------------------------|--------------------------------|

[Post-Hook]
(Guitar 1)
e|----------------|--------------------------------|----------------|--------------------------------|
B|----------------|--------------------------------|----------------|--------------------------------|
G|----------------|--------------------------------|----------------|--------------------------------|
D|4---------------|----9---9---7---7---5---5---4---|5---------------|----9---9---7---7---5---5---4---|(x2)
A|----------------|--------------------------------|----------------|--------------------------------|
E|2---------------|----7---7---5---5---3---3---2---|3---------------|----7---7---5---5---3---3---2---|
A|----------------|--------------------------------|----------------|--------------------------------|

(Guitar 2)
e|------------------------------------|--------------------------------------|
B|------------------------------------|--------------------------------------|
G|------------------------------------|--------------------------------------|
D|------------------------------------|--------------------------------------|
A|------------------------------------|--------------------------------------|
E|7-7-0-0-0-0-7-7-8-8-0-0-12-12-11-11-|0-0-7-7-8-8-12-12-11-11-8-8-11-11-8-8-|
A|------------------------------------|--------------------------------------|

  1st Ending
e|------------------------------------|------------------------------------|
B|------------------------------------|------------------------------------|
G|------------------------------------|------------------------------------|
D|------------------------------------|------------------------------------|
A|------------------------------------|------------12-12-11-11-7-7-8-8-----|
E|7-7-0-0-0-0-7-7-8-8-0-0-12-12-11-11-|0-0-7-7-8-8---------------------8-8-|
A|------------------------------------|------------------------------------|

  2nd Ending
e|----------------------------------|--------------------------------|
B|----------------------------------|--------------------------------|
G|----------------------------------|--------------------------------|
D|----------------------------------|--------------------------------|
A|----------------------------------|--------------------------------|
E|7-7-0-0-0-0-7-7-8-8-0-0-12-12-7---|8---5---7---3---5---2---3---0---|
A|----------------------------------|--------------------------------|

[Breakdown 2 Part 1]
(Guitar 1 and 2)
e|--------------------------------|--------------------------------|
B|--------------------------------|--------------------------------|
G|--------------------------------|--------------------------------|
D|--------------------------------|--------------------------------|
A|--------------------------------|--------------------------------|
E|2---2-2---2-2-----------2-2---2-|--2-2---2-2-----------------2---|
A|2---2-2---2-2-----------2-2---2-|--2-2---2-2-----------------2---|
  PM--------------|       PM---------------------|             PM-|

e|--------------------------------|--------------------------------|
B|--------------------------------|--------------------------------|
G|--------------------------------|--------------------------------|
D|--------------------------------|--------------------------------|
A|--------------------------------|--------------------------------|
E|2---2-2---2-2-----------2-2---2-|--2-2---2-2---------------------|
A|2---2-2---2-2-----------2-2---2-|--2-2---2-2---------------------|
  PM--------------|       PM---------------------|

e|--------------------------------|--------------------------------|
B|--------------------------------|--------------------------------|
G|--------------------------------|--------------------------------|
D|--------------------------------|--------------------------------|
A|--------------------------------|--------------------------------|
E|2---2-2---2-2-----------2-2---2-|--2-2---2-2-----------------2---|
A|2---2-2---2-2-----------2-2---2-|--2-2---2-2-----------------2---|
  PM--------------|       PM---------------------|             PM-|

e|--------------------------------|--------------------------------|
B|--------------------------------|--------------------------------|
G|--------------------------------|--------------------------------|
D|--------------------------------|--------------------------------|
A|--------------------------------|--------------------------------|
E|2---2-2---2-2-----------2-2---2-|--2-2---2-2-----2---2---2---2---|
A|2---2-2---2-2-----------2-2---2-|--2-2---2-2-----2---2---2---2---|
  PM--------------|       PM--------------------------------------|

[Breakdown 2 Part 2]
(Guitar 1 and 2)
e|--------------------------------|--------------------------------|
B|--------------------------------|--------------------------------|
G|--------------------------------|--------------------------------|
D|--------------------------------|--------------------------------|
A|--------------------------------|--------------------------------|
E|1---1-1---1-1---1---1---1-1---1-|--1-1---1-1---1---1---1-1---1---|
A|2---2-2---2-2---2---2---2-2---2-|--2-2---2-2---2---2---2-2---2---|
  PM--------------------------------------------------------------|

e|--------------------------------|--------------------------------|
B|--------------------------------|--------------------------------|
G|--------------------------------|--------------------------------|
D|--------------------------------|--------------------------------|
A|--------------------------------|--------------------------------|
E|1-1---1-1---1---1---1-1---1---1-|1---1---1-1---1---1-1---1---1-1-|
A|2-2---2-2---2---2---2-2---2---2-|2---2---2-2---2---2-2---2---2-2-|
  PM--------------------------------------------------------------|

e|--------------------------------|--------------------------------|
B|--------------------------------|--------------------------------|
G|--------------------------------|--------------------------------|
D|--------------------------------|--------------------------------|
A|--------------------------------|--------------------------------|
E|1---1-1---1-1-----------1-1---1-|--1-1---1-1-----------------1---|
A|2---2-2---2-2-----------2-2---2-|--2-2---2-2-----------------2---|
  PM--------------|       PM---------------------|             PM-|

e|--------------------------------|--------------------------------|
B|--------------------------------|--------------------------------|
G|--------------------------------|--------------------------------|
D|--------------------------------|--------------------------------|
A|--------------------------------|--------------------------------|
E|1---1-1---1-1-----------1-1---1-|--1-1---1-1-----1---1---1---1---|
A|2---2-2---2-2-----------2-2---2-|--2-2---2-2-----2---2---2---2---|
  PM--------------|       PM--------------------------------------|

[Break]
(Guitar 1 and 2)
e|----------------------------------------|----------------------------------------|
B|----------------------------------------|----------------------------------------|
G|----------------------------------------|----------------------------------------|
D|----------------------------------------|----------------------------------------|
A|----------------------------------------|----------------------------------------|
E|2-----------1-----------0-------0---0---|2-----------1-----------0---0---3-3-3-3-|
A|2-----------1-----------0-------0---0---|2-----------1-----------0---0-----------|
                                  PM-----|                         PM-----|

e|----------------------------------------|------------------------------------------------|
B|----------------------------------------|------------------------------------------------|
G|----------------------------------------|------------------------------------------------|
D|----------------------------------------|------------------------------------------------|
A|----------------------------------------|------------------------------------------------|
E|2-----------1-----------0-------0---0---|2-----------1-----------2---1---2-----------1---|
A|2-----------1-----------0-------0---0---|2-----------1-----------2---1-------2---1-------|
                                  PM-----|                         PM-----|

[Post-Break]
(Guitar 1 and 2)
e|--------------------------------|--------------------------------|
B|--------------------------------|--------------------------------|
G|--------------------------------|--------------------------------|
D|--------------------------------|--------------------------------|
A|--------------------------------|--------------------------------|
E|2---1---0-----------2---1---2-2-|1-1-2---1---2-2-3---2---3---2---|
A|2---1---0---1---0---2---1-------|----2---1-------3---2---3---2---|
  PM---------|        PM-----|         PM-----|    PM-------------|

e|--------------------------------|--------------------------------|
B|--------------------------------|--------------------------------|
G|--------------------------------|--------------------------------|
D|--------------------------------|--------------------------------|(x2)
A|--------------------------------|--------------------------------|
E|2---1---0-----------1---0---2-2-|----2---1---2---3-3-2-2-1-1-3-3-|
A|2---1---0---2---1---1---0-------|1---2---1-------3-3-2-2-1-1-3-3-|
  PM---------|        PM-----|         PM-----|    PM-------------|

e|--------------------------------|--------------------------------|
B|--------------------------------|--------------------------------|
G|--------------------------------|--------------------------------|
D|--------------------------------|--------------------------------|
A|--------------------------------|--------------------------------|
E|2-2-1-1-3-3-2-2-1-1-3-3-2-2-1-1-|3-3-2-2-1-1-2-2-----------------|
A|2-2-1-1-3-3-2-2-1-1-3-3-2-2-1-1-|3-3-2-2-1-1-2-2-3-3-2-2-1-1-3-3-|
  PM----------------------------------------------|

e|--------------------------------|--------------------------------|
B|--------------------------------|--------------------------------|
G|--------------------------------|--------------------------------|
D|--------------------------------|--------------------------------|
A|--------------------------------|--------------------------------|
E|--------3---2---1---3---2---1---|--------------------------------|
A|2-2-1-1-3---2---1---3---2---1---|--------------------------------|
          PM---------------------|

[Breakdown 3]
(Guitar 1 and 2)
e|--------------------------------|--------------------------------|
B|--------------------------------|--------------------------------|
G|--------------------------------|--------------------------------|
D|--------------------------------|--------------------------------|
A|--------------------------------|--------------------------------|
E|0-0-0---0-0-0-------0-0-0-0-0-0-|0-------0-0-0---0-0-0-------0---|
A|0-0-0---0-0-0-------0-0-0-0-0-0-|0-------0-0-0---0-0-0-------0---|
  PM--------------------------------------------------------------|

e|--------------------------------|----------------|
B|--------------------------------|----------------|
G|--------------------------------|----------------|
D|--------------------------------|----------------|
A|--------------------------------|----------------|
E|0-0-0-------0---0-0-0---0-0-0---|1-------0-------|
A|0-0-0-------0---0-0-0---0-0-0---|1-------0-------|
  PM----------------------------------------------|

e|--------------------------------|--------------------------------|
B|--------------------------------|--------------------------------|
G|--------------------------------|--------------------------------|
D|--------------------------------|--------------------------------|
A|--------------------------------|--------------------------------|
E|0-0-0---0-0-0-------0-0-0-0-0-0-|0-------0-0-0---0-0-0-------0---|
A|0-0-0---0-0-0-------0-0-0-0-0-0-|0-------0-0-0---0-0-0-------0---|
  PM--------------------------------------------------------------|

e|--------------------------------|--------------------------------|
B|--------------------------------|--------------------------------|
G|--------------------------------|--------------------------------|
D|--------------------------------|--------------------------------|(x2)
A|--------------------------------|--------------------------------|
E|0-0-0-------0---0-0-0---0-0-0---|3-------1-------1-------0-------|
A|0-0-0-------0---0-0-0---0-0-0---|3-------1-------1-------0-------|
  PM--------------------------------------------------------------|

  We cease to exist!
e|--------------------------------|
B|--------------------------------|
G|--------------------------------|
D|--------------------------------|
A|--------------------------------|
E|0-------------------------------|
A|0-------------------------------|

[Outro]
(Guitar 1)
e|------------------------------------|--------------------------------------|
B|------------------------------------|--------------------------------------|
G|------------------------------------|--------------------------------------|
D|------------------------------------|--------------------------------------|
A|------------------------------------|--------------------------------------|
E|7-7-0-0-0-0-7-7-8-8-0-0-12-12-11-11-|0-0-7-7-8-8-12-12-11-11-8-8-11-11-8-8-|
A|------------------------------------|--------------------------------------|

  1st Ending
e|------------------------------------|------------------------------------|
B|------------------------------------|------------------------------------|
G|------------------------------------|------------------------------------|
D|------------------------------------|------------------------------------|
A|------------------------------------|------------12-12-11-11-7-7-8-8-----|
E|7-7-0-0-0-0-7-7-8-8-0-0-12-12-11-11-|0-0-7-7-8-8---------------------8-8-|
A|------------------------------------|------------------------------------|

  2nd Ending
e|----------------------------------|--------------------------------|
B|----------------------------------|--------------------------------|
G|----------------------------------|--------------------------------|
D|----------------------------------|--------------------------------|
A|----------------------------------|--------------------------------|
E|7-7-0-0-0-0-7-7-8-8-0-0-12-12-7---|8---5---7---3---5---2---3---0---|
A|----------------------------------|--------------------------------|

(Guitar 2)
e|--------------------------------|--------------------------------|
B|--------------------------------|--------------------------------|
G|--------------------------------|--------------------------------|
D|--------------------------------|----------------4-4-------------|
A|5-5-5-5-5-5-5-5-4-4-4-4-4-4-4-4-|4-4-4-4-4-4-5-5-----7-7-5-5-7-7-|
E|--------------------------------|--------------------------------|
A|--------------------------------|--------------------------------|

                                   1st Ending                       2nd Ending
e|--------------------------------|--------------------------------|--------------------------------|
B|--------------------------------|--------------------------------|--------------------------------|
G|--------------------------------|--------------------------------|--------------------------------|
D|--------------------------------|----------------4-4-------------|--------------------------------|(x2)
A|7-7-7-7-7-7-7-7-5-5-5-5-5-5-5-5-|5-5-5-5-4-4-5-5-----7-7-5-5-7-7-|4-4-4-4-4-4-4-4-7-7-7-7-7-7-7-7-|
E|--------------------------------|--------------------------------|--------------------------------|
A|--------------------------------|--------------------------------|--------------------------------|


************************************

| PM  Palm mute

************************************

            
            
Suggest correction
Creating personal tab
Creating personal tab
You can edit any tab online and save it as your Personal.

You can edit, replace or remove any tab part or add personal notes – all changes will be seen only by you.

Personal tabs can be accessed anytime from any device, even offline.
Learn more »
Give kudos to tab author, rate the tab!
1 2 3 4 5
comments
print report bad tab
1 comment total.
0 reply
LMBozovich 1,346 Jun 24, 2017 01:18 AM

Guys, gals, thanks for viewing this tab. Make sure to rate.

guest
You may want to rate the tab now too:
select rating
Wanna post a correction for this tab? Suggest correction