Oops, an error
Loading. Please wait.

Damage bass

version 1
version 1

Whole song

Interactive

1,080 views 3 this week
2 commentsread comments
1 2 3 4 5
x 4
add to favorites
×
Save as Personal and add changes to this tab that will be seen only by you. Learn more ›
×
You can save this tab as Personal to edit and correct it or add notes. All changes will be seen only by you. Learn more »
launch autoscroll
font size
0
reset
guitar tuner
edit
Autoscroll
slow
fast
+/-
esc
set tempo
stop
Author
Difficulty
Tabs by: Gabrielle Teles | from Brazil |  Tuning: standart




Intro (You don't know anything...)
G ----------------------------------|
D ----------------------------------|
A ----------------------------------| 
E --7777------7777----888-7~--------|

G -------------------------------------------------------------|
D -------------------------------------------------------------|
A -------------------------------------------------------------|
E ---5(8x)---3(8x)---2(8x)---1(8x)---5(8x)--8(6x)--3(6x)--2(8x)|

Verse (Once it starts it never stops…)
G ----------------------------------|
D ----------------------------------|  4x
A ----------------------------------|  
E ---5(8x)---3(8x)---2(8x)---1(8x)--|

Chorus (Steady damage cross the line…)
G ------------------------------------------|
D ------------------------------------------|  2x
A -----------3(8x)---5(12x)---7(4x)---------|  
E ---5(8x)----------------------------------|

Verse
G ---------------------------------------|
D ---------------------------------------|  
A ---------------------------------------|  
E ----5(8x)--3(8x)---2(8x)---1(8x)-------|

Verse (continued)
G ----------------------------------|
D ----------------------------------|  3x
A ----------------------------------|  
E ---5(8x)---3(8x)---2(8x)---1(8x)--|

Chorus (Steady damage cross the line…)
G ------------------------------------------|
D ------------------------------------------|  4x
A -----------3(8x)---5(12x)---7(4x)---------|  
E ---5(8x)----------------------------------|


Verse(I can't wait to see your face when I make it without you…)
G ---------------------------------------|
D ---------------------------------------|  
A ---------------------------------------|  
E ----5(8x)--3(8x)---2(8x)---1(8x)-------|


Verse (continued)
G ----------------------------------|
D ----------------------------------|  3x
A ----------------------------------|  
E ---5(8x)---3(8x)---2(8x)---1(8x)--|

G ---------------------------------------|
D ---------------------------------------|  
A ---------------------------------------|  
E ---5(8x)---3(8x)---2(8x)---1(8x)-0-3--3|

Chorus (Steady damage cross the line…)
G ------------------------------------------|
D ------------------------------------------|  4x
A -----------3(8x)---5(12x)---7(4x)---------|  
E ---5(8x)----------------------------------|

You don't know anything...
G ------------------------------------------|
D ------------------------------------------|
A -------3---5------------------------------|  
E ---5--------------------------------------|


            
            
Suggest correction
Creating personal tab
Creating personal tab
You can edit any tab online and save it as your Personal.

You can edit, replace or remove any tab part or add personal notes – all changes will be seen only by you.

Personal tabs can be accessed anytime from any device, even offline.
Learn more »
comments
print report bad tab
2 comments total.
0 reply
valkyriecaine 13 Jul 20, 2016 05:15 PM

might just be me, but I think it either needs to be in a higher tuning, or played two frets higher.

0 reply
valkyriecaine 13 Jul 20, 2016 05:17 PM

oops nevermind, I was just tuned lower XD

guest
You may want to rate the tab now too:
select rating
Wanna post a correction for this tab? Suggest correction