Oops, an error
Loading. Please wait.

Donde Todo Empieza tab

version 1
version 1

Whole song

213 views 6 this week
no commentswrite comment
1 2 3 4 5
2 more votes to show rating
add to favorites
×
Save as Personal and add changes to this tab that will be seen only by you. Learn more ›
×
You can save this tab as Personal to edit and correct it or add notes. All changes will be seen only by you. Learn more »
launch autoscroll
font size
0
reset
how to read this tab
guitar tuner
edit
Autoscroll
slow
fast
+/-
esc
set tempo
stop
Hola esta es la primera trascripción que hago y se
la dedico a la mejor chica que hay, Laura te quiero.

Acordes:
   F     Eb    A#   Gm
|--1--|--6--|--6--|--3--|
|--3--|--8--|--6--|--5--|
|--3--|--8--|--7--|--5--|
|--2--|--8--|--8--|--4--|
|--1--|--6--|--8--|--3--|
|--1--|--X--|--6--|--3--|

Intro
            F  Eb           A#           F
E-------------|----------------|------------------------|
B---6-3-------|---6--3---------|-------3h4b3------------|
G-3-----5-3-5-|-3------5-3-5h7-|-----3-------5-2h3------|
D-------------|----------------|-0h3---------------5b3--|
A-------------|----------------|------------------------|
E-------------|----------------|------------------------|
            F  Eb           A#            F
E-------------|----------------|------------------------|
B---6-3-------|---6-3----------|-------3h4b3---6-3h4----|
G-3-----5-3-5-|-3-----5-3-5h7--|------3------5----------|
D-------------|----------------|---0h3---------------5b3|
A-------------|----------------|------------------------|
E-------------|----------------|------------------------|


A#                 F                 Eb
Puede que no valga la pena escribir,
                    A#
tan lejos de la poesía
          A#            F             Eb
todas las palabras que te quiero decir
        A#
se me rompen enseguida
         Gm           F                    Eb
No me quedan flores, me arrancaron la raiz
            A#
Se pisaron las semillas
          A#            F        Eb
Me di cuenta tarde que te perdí
                 A#
por pensar que te tenía...
            F  Eb          A#              F
E-------------|----------------|--------------------------|
B---6-3-------|---6-3----------|-----3h4b3------3---------|
G-3-----5-3-5-|-3-----5-3-5h7--|----3------5---5-5-3--8b7-|
D-------------|----------------|-0h3----------------------|
A-------------|----------------|--------------------------|
E-------------|----------------|--------------------------|

A#                   F            Eb
Creo que los bares se deben abrir
                   A#
para cerrar las heridas
             A#         F             Eb
y todas las noches, me acuerdo de ti
         A#
y te olvido cada día
Gm                   F
Y vuelvo a ser un loco
               Eb          A#
para sobrevivir, a la locura de la vida
A#                    F                   Eb
Muchas veces la cabeza, y a menudo la nariz
              A#
Y una voz que me decía

          Gm
Dejate llevar
F             Eb
 Si el alma te lleva
Eb             A#
 Duele el corazón
A#             F
 Cuando te lo dejas
 F          Gm
Cerca del final
    Eb         A#   A#
Donde todo empieza

 (solo de saxo: F-F-Eb-Eb-A#-A#-F-F)

Solo:
               Eb                             A#
E--------------------------------|-----------------------|
B--13h15-13---------------13h15--|--13h15-13-------------|
G-----------15-12----12-15-------|----------15---15------|
D--------------------------------|------------15---13h12-|
A--------------------------------|-----------------------|
E--------------------------------|-----------------------|
            F                   Gm
E-------------------------------------------------------|
B-------------13----------------------------------------|
G-----12h13h14---14b12--14b12-14h15--15-15-15--15-15-15-|
D--15-----------------15--------------------------------|
A-------------------------------------------------------|
E-------------------------------------------------------|
               Eb                             A#
E--------------------------------|-----------------------|
B--13h15-13---------------13h15--|--13h15-13-------------|
G-----------15-12----12-15-------|----------15--15-------|
D--------------------------------|------------15--13h12--|
A--------------------------------|-----------------------|
E--------------------------------|-----------------------|
             F                        A#
E-------------------------------------------|
B-------------------------------------------|
G-----12h13-14----14b12---------------------|
D--15-------------------15--10h12-10--8-----|
A-------------------------------------------|
E-------------------------------------------|

                  F
Donde todo empiezaaaaa
                    Gm
Donde todo todo empieza
                  F
Donde todo empiezaaaaa
                    Gm
Donde todo todo empieza
                  F
Donde todo empiezaaaaa
                              Gm
No me sale bien la cuenta de la vida
                  F
Donde todo empiezaaaaa
                              Gm
O me sobran noches o me faltan dias
                  F
Donde todo empiezaaaaa
                                 Gm
Todos los minutos que no he estao contigo
                  F
Donde todo empiezaaaaa
                               Gm
Ahora son demonios que viven conmigo
                  F
Donde todo empiezaaaaa
                               Gm
Puedes encontrarme cerca del final
                  F
Donde todo empiezaaaaa
                                Gm
Por que todo empieza cerca del final
                  F
Donde todo empiezaaaaa
                               Gm
Puedes encontrarme cerca del final
                  F
Donde todo empiezaaaaa
                                Gm       F
Por que todo empieza cerca del final...
                                  Gm
Por que todo empieza cerca del final.......

Y repite F-Gm hasta el final.

Si tiene fallos por favor envienmelos a mi coreo indicado
arriva.

            
            
Suggest correction
Creating personal tab
Creating personal tab
You can edit any tab online and save it as your Personal.

You can edit, replace or remove any tab part or add personal notes – all changes will be seen only by you.

Personal tabs can be accessed anytime from any device, even offline.
Learn more »
Give kudos to tab author, rate the tab!
1 2 3 4 5
comments
print report bad tab
guest
Wanna post a correction for this tab? Suggest correction