Oops, an error
Loading. Please wait.

El Ojo Que Me Mira tab

version 2
version 2

Whole song

70 views 1 this week
no commentswrite comment
1 2 3 4 5
3 more votes to show rating
add to favorites
×
Save as Personal and add changes to this tab that will be seen only by you. Learn more ›
×
You can save this tab as Personal to edit and correct it or add notes. All changes will be seen only by you. Learn more »
launch autoscroll
font size
0
reset
how to read this tab
guitar tuner
edit
Autoscroll
slow
fast
+/-
esc
set tempo
stop
Hola otra vez. Aquí va este tab de Fito, espero que
os guste

-Intro:

e-----------------------------------------------------------------------
b-1--1h3--0------------1--1h3--0--1----1--1h3--0------------1--1h3--0--1
g------------5s4s2p0------------------------------5s4s2p0---------------
d-2--2----0------------2--2----0--3----2--2----0------------2--2----0--3
a---3--------------------3---------------3--------------------3---------
e--------3--------------------3--1------------3--------------------3---1

Pre-versos:

-----------------------------------------    Se repite 2 veces
--3--1h0---0---1----3-1h0---0------------
-----------------------------------------
--2--2-----0---3----2-2-----0------------
-0--3--------------0-------------3-2h0---
----------3---1------------3---1-------1-
                             pm.........

LAm7-DO-SOL-FA

Veo el ojo que me mira
no se que esperais de mi
yo que muero cada dia
que tu te olvidas de mi

Soy un pez en una jaula
lo que quiero y lo que no
soy todo lo que me pasa
LA5               SOL5
tu me veees...yo no...
y ademas, estoy cansado, ademas
se que tu, de lo que dices, la mitad
menos mal que esta a mi lado
siempre el mar
todo lo demas me hace daño

-Después de los versos viene este punteo, que se va repitiendo para llegar al punteo final.
Por encima suena un solo de guitarra que en Fa Pentatónica mayor(o en Re pentatónica menor,las
dos valen).

e--------------------------------------------------------
b--------------------------------------------------------
g---5h9-7--7h5s4--2h4h5--4p2p0-2p0----5h9-7--7h5s4----4h5
d-7---------------------------------7---------------7----
a--------------------------------------------------------
e--------------------------------------------------------


Punteo del final:

e------------------------------------------------------
b------------------------------------------------------
g------------------------------------------------------
d-1010p9-999-7h9p7-12b-10p9p7---1010p9-9-7h9p7s5----5h7   (se repite varias veces)
a-------------------------------------------------7----
e------------------------------------------------------

e-----------------------------
b-----------------------------
g-----------------------------
d-1010p9-999-7h9p7------------   (asi acaba)
a-----------------10p7h10p7---
e-----------------------------

Lo de siempre, regalos, criticas, insultos, cervezas,
hablar de fito o charla amistosa a fititodamian@

            
            
Suggest correction
Creating personal tab
Creating personal tab
You can edit any tab online and save it as your Personal.

You can edit, replace or remove any tab part or add personal notes – all changes will be seen only by you.

Personal tabs can be accessed anytime from any device, even offline.
Learn more »
Give kudos to tab author, rate the tab!
1 2 3 4 5
comments
print report bad tab
guest
Wanna post a correction for this tab? Suggest correction