Oops, an error
Loading. Please wait.

Rojitas Las Orejas tab

version 1
version 1

Whole song

571 views 6 this week
no commentswrite comment
1 2 3 4 5
3 more votes to show rating
add to favorites
×
Save as Personal and add changes to this tab that will be seen only by you. Learn more ›
×
You can save this tab as Personal to edit and correct it or add notes. All changes will be seen only by you. Learn more »
launch autoscroll
font size
0
reset
how to read this tab
guitar tuner
edit
Autoscroll
slow
fast
+/-
esc
set tempo
stop
He puesto las tabs lo mas claramente posible,  no creo que haya
ninguna duda,  pero ya sabeis, caso de comentario,pregunta o
sugerencia,  escribidme y veremos que se puede hacer.


INTRO (6 veces):

  riff-1]
    Em          C            D       C
 e-|----------------------------2----------------|--
 B-|------0----------1----------3----------------|--
 G-|------0----------0-0h0--2---2----------------|--
 D-|------2-2h0------2------0-0---0--------------|--
 A-|----2-------3--3-----------------3333^2------|--
 E-|--0------------------------------------3p0---|--

>>>Para la primera estrofa,  tocamos el riff-1] hasta 
llegar al preestribillo:

 riff-1]

 Em                C
 ¿Qué tiene tu veneno
       D               C 
 que me quita la vida sólo con un beso,
 E                  C
 y me lleva a la luna,
       D               C
 y me ofrece la droga que todo lo cura?

 Dependencia bendita,
 invisible cadena que me ata a la vida.
 Y en momentos oscuros
 palmadita en la espalda y ya estoy más seguro.


>>>El preestribillo se toca rápido.  Pongo la transcripción
por si alguna duda:

      Am    Em  Am  Em     Am    Em  Am  Em    C           
 e-|--0-0---0---0---0-0---0000---0---0---0-0---0---|--
 B-|--1-1---0---1---0-0---1111---0---1---0-0---1---|--
 G-|--2-2---0---2---0-x---2222---0---2---0-x---0---|--
 D-|--2-x---2---0---2-x---xx22---2---2---2-x---2---|--
 A-|--0-x---2---0---2-x---xxx0---2---0---x-x---3---|--
 E-|--x-x---0---0---0-x---xxxx---0---x---x-x---0---|--

>>>El estribillo se une con el preestribillo en C:
       C                          D
          Se me ponen si me besas,   rojitas las orejas.              
 e-|--x-0------------------------x-2--------------------|--
 B-|--x-1------------------------x-3--------------------|-- 
 G-|--0-0------------------------2-2--------------------|--
 D-|--2-2------------------------0-0--------------------|--
 A-|--3-3------------------------0-x--------------------|--
 E-|--0-0------------------------x-x--------------------|--


>>>La segunda estrofa se toca igual,  solo que en la segunda
parte se toca algo más fuerte y rápido.

>>>Se repite el preestribillo y el estribilloy después:

 Em    C     Em             D                   
 Rojitas las orejas,  se me ponen si me besas.  [x2]





>>>Mientras el solo,  se toca el riff-1] cuatro veces y se
vuelve a tocar el preestribillo y el estribillo (estribillo (x2))
y:

 Em    C     Em             D                      
 Rojitas las orejas,  se me ponen si me besas.  [x4]


>>>La parte final es un punteillo muy fácil y lento:

 Rojitas las orejas.
 Rojitas las orejas.
 Rojitas las orejas.

        Em         C            Em          D
 e-|----------------------------------------2---|-- 3
 B-|----------------------------------------3---|-- v
 G-|----------0-------0---0-----------0-----2---|-- e 
 D-|------0--4------2----4--------0--4----------|-- C
 A-|----2---------3-------------2---------0-----|-- e
 E-|--0-----------------------0-----------------|-- s


>>>>>ESPERO QUE OS SIRVA.
  
                   kiopx@

            
            
Suggest correction
Creating personal tab
Creating personal tab
You can edit any tab online and save it as your Personal.

You can edit, replace or remove any tab part or add personal notes – all changes will be seen only by you.

Personal tabs can be accessed anytime from any device, even offline.
Learn more »
Give kudos to tab author, rate the tab!
1 2 3 4 5
comments
print report bad tab
guest
Wanna post a correction for this tab? Suggest correction