Oops, an error
Loading. Please wait.

Pathetic tab

1,356 views 6 this week
1 commentread comment
1 2 3 4 5
2 more votes to show rating
add to favorites
×
Save as Personal and add changes to this tab that will be seen only by you. Learn more ›
×
You can save this tab as Personal to edit and correct it or add notes. All changes will be seen only by you. Learn more »
launch autoscroll
font size
0
reset
how to read this tab
guitar tuner
edit
Autoscroll
slow
fast
+/-
esc
set tempo
stop
http://www.fiveboltmain.com

Pathetic from Five Bolt Main
Tuning: Drop C

Main(lead right into the next with those zeros)
------------------|
------------------|
------------------|
------------------|
-332-xx-x-x-x-000-|
-332-xx-x-x-x-000-|
-332-xx-x-x-x-000-|

Fill(thrown throughout the Main riff, not hard to figure out where)
-----0~---------|
-----0~---------|
-----0~---------|
-332------------|
-332------------|
-332------------|

Verse
-----------------|
-----------------|
-----------------|
-332----000-332--|
-332----000-332--|
-332----000-332--|

-play Main

Chorus
--------------------------|
--------------------------|
--------------------------|
-2-222-222-22-3-330-000-3-|
-2-222-222-22-3-330-000-3-|
-2-222-222-22-3-330-000-3-|

-play Verse
-Play Main
-Play Chorus
Interlude(clean)
---------------------------|
------------5--------------|
-------4-44---------4-44---|
-2-222--------2-222------3-|
---------------------------|
---------------------------|

Interlude 2
-----------|
-----------|
-----------|
-2~~-------|
-2~~-------|
-2~~-------|

-play Chorus
-play Main

            
            
Suggest correction
Creating personal tab
Creating personal tab
You can edit any tab online and save it as your Personal.

You can edit, replace or remove any tab part or add personal notes – all changes will be seen only by you.

Personal tabs can be accessed anytime from any device, even offline.
Learn more »
Give kudos to tab author, rate the tab!
1 2 3 4 5
comments
print report bad tab
1 comment total.
0 reply
xSacrilegex 70 Jul 08, 2006 01:45 PM

Forgot this part

---------------------0~-
---------------------0~-
---------------------0~-
-332-332-332-332-332----
-332-332-332-332-332----
-332-332-332-332-332----

guest
Wanna post a correction for this tab? Suggest correction