Oops, an error
Loading. Please wait.

100 Ways To Hate tab

version 1
version 1

Whole song

Interactive

3,417 views 21 this week
no commentswrite comment
1 2 3 4 5
x 4
add to favorites
×
Save as Personal and add changes to this tab that will be seen only by you. Learn more ›
×
You can save this tab as Personal to edit and correct it or add notes. All changes will be seen only by you. Learn more »
launch autoscroll
font size
0
reset
how to read this tab
guitar tuner
edit
Autoscroll
slow
fast
+/-
esc
set tempo
stop
-----------------------------------------------------------------------------------------
|                      FIVE FINGER DEATH PUNCH - 100 WAYS TO HATE                       |
|                           Album: American Capitalist (2011)                           |
-----------------------------------------------------------------------------------------
           If you have questions or corrections feel free to send me a message:
                        http://profile.ultimate-guitar.com/godspeedy/
                           https://www.facebook.com/Godspeedy14
                           
        Also, check out my Youtube channel: http://www.youtube.com/user/Godspeedy14

                Tuning: 6 string BEADF#B (Rhythm), 7 string BEADGBE (SOLO)

**************************************GUITAR NOTATIONS***********************************
*                                                                                       *
*                                | *   palm mute         |                              *
*                                | s   slide             |                              *
*                                | h   hammer-on         |                              *
*                                | p   pull-off          |                              *
*                                | ~   vibrato           |                              *
*                                | b   bend              |                              *
*                                | r   release           |                              *
*                                | pb  pre-bend          |                              *
*                                | ..  let ring          |                              *
*                                | \\  whammy bar down   |                              *
*                                                                                       *
*****************************************************************************************

-----------------------------------------------------------------------------------------
|                                    INTRO (00:00-00:20)                                |
-----------------------------------------------------------------------------------------

Guitars 1 and 2 (w/ dist)

 B|------------------------|---------------------------|
F#|------------------------|---------------------------|
 D|------------------------|---------------------------|
 A|----5s-4-----2-----2----|---------------------------|
 E|----3s-2-----2-----2----|----3--------3-----3-------|\
 B|-0--------0-----------0-|-0--1--0--0--1h-0--1h-0----| \
    *        *           *   *     *  *                   x4
 B|------------------------|---------------------------| /
F#|------------------------|---------------------------|/
 D|------------------------|---------------------------|
 A|----5s-4-----2-----2----|---------------------------|
 E|----3s-2-----2-----2----|----3--------------3-------|
 B|-0--------0-----------0-|-0--1--1--1--1--1--1-------|
    *        *           *   *     *  *  *  * 

-----------------------------------------------------------------------------------------
|                                   VERSE (00:20-00:41)                                 |
-----------------------------------------------------------------------------------------
                                       same as INTRO
-----------------------------------------------------------------------------------------
|                                 PRE-CHORUS (00:41-00:56)                              |
-----------------------------------------------------------------------------------------

Guitars 1 and 2 (w/ dist)

 B|--------------------|--------------------|--------------------|----------------------|
F#|--------------------|--------------------|--------------------|----------------------|
 D|--------------------|--------------------|--------------------|----------------------| x2
 A|------------------2-|-5--5--5--5-------5-|-2--2--2--2-------2-|----------------------|
 E|-2--2--2--2-------2-|-3--3--3--3-------3-|-0--0--0--0-------0-|-5--5----5--5--5----5-|
 B|-0--0--0--0---------|--------------------|--------------------|-3--3----3--2--2----2-|
    *  *  *  *           *  *  *  *           *  *  *  *           *  *    *  *  *    *           

 B|--------------------|--------------------|--------------------|----------------------|
F#|--------------------|--------------------|--------------------|----------------------|
 D|--------------------|--------------------|--------------------|----------------------|
 A|------------------2-|-5--5--5--5-------5-|-2--2--2--2---------|----------------------|
 E|-2--2--2--2-------2-|-3--3--3--3-------3-|-0--0--0--0-------5-|---\\\\\\\\\----------|
 B|-0--0--0--0---------|--------------------|------------------3-|---\\\\\\\\\----------|
    *  *  *  *           *  *  *  *           *  *  *  *       *   

-----------------------------------------------------------------------------------------
|                                   CHORUS (00:56-01:16)                                |
-----------------------------------------------------------------------------------------

Guitars 1 and 2 (w/ dist)

 B|------------|------------|------------|----------------------|
F#|------------|------------|------------|----------------------|
 D|------------|------------|------------|----------------------| x4
 A|------------|-5----------|-2----------|----------------------|
 E|-2----------|-3----------|-0----------|-5--5----5--5--5----5-|
 B|-0----------|------------|------------|-3--3----3--2--2----2-|

Guitar 3 (w/ dist and delay)

   ...............................................................
 B|--------7-----|--------8-----|------7--8h7------|--------------|
F#|-----8-----8--|-----8-----8--|--10----------10--|-----8-----7--|
 D|--9-----------|--9-----------|------------------|--9-----7-----| x4
 A|--------------|--------------|------------------|--------------|
 E|--------------|--------------|------------------|--------------|
 B|--------------|--------------|------------------|--------------|

-----------------------------------------------------------------------------------------
|                                   VERSE 2 (01:16-01:46)                               |
-----------------------------------------------------------------------------------------

I. Guitars 1 and 2 (w/ dist)

 B|------------------------|--------------------------|
F#|------------------------|--------------------------|
 D|------------------------|--------------------------|
 A|------------------------|--------------------------|
 E|------------7b-r--p5----|--------------------------|
 B|-0--0----0--------------|-0-0-0-0-0-0-0-0-6--------|
    *  *    *                * * * * * * * *
 B|-------------------------|-------------------------|
F#|-------------------------|-------------------------|
 D|-------------------------|-------------------------|
 A|-------------------------|-------------------------|
 E|------------4-p1---------|-------------------------|
 B|-0--0----0--------0--0---|-0--3--1--0--3--1--------|
    *  *    *        *  *     *  *  *  *  *
 B|------------------------|--------------------------|
F#|------------------------|--------------------------|
 D|------------------------|--------------------------|
 A|------------------------|--------------------------|
 E|------------7b-r--p5----|--------------------------|
 B|-0--0----0--------------|-0-0-0-0-0-0-0-0-6--------|
    *  *    *                * * * * * * * *
 B|-------------------------|-------------------------|
F#|-------------------------|-------------------------|
 D|-------------------------|-------------------------|
 A|-------------------------|-------------------------|
 E|------------4-p1---------|-------------------------|
 B|-0--0----0--------0--0---|-0--1--------------------|
    *  *    *        *  *     *  

   Guitar 3 (w/ dist) - Harmony for gtrs. 1 and 2

 B|------------------------|--------------------------|
F#|------------------------|--------------------------|
 D|------------9b-r--p7----|--------------------------|
 A|------------------------|-----------------8--------|
 E|------------------------|--------------------------|
 B|------------------------|--------------------------|

 B|-------------------------|-------------------------|
F#|-------------------------|-------------------------|
 D|-------------------------|-------------------------|
 A|-------------------------|-------------------------|
 E|------------7-p4---------|-------------------------|
 B|-------------------------|-------------------------|

 B|------------------------|--------------------------|
F#|------------------------|--------------------------|
 D|------------9b-r--p7----|--------------------------|
 A|------------------------|-----------------8--------|
 E|------------------------|--------------------------|
 B|------------------------|--------------------------|

 B|-------------------------|-------------------------|
F#|-------------------------|-------------------------|
 D|-------------------------|-------------------------|
 A|-------------------------|----6--b-----------------|
 E|------------7-p4---------|-------------------------|
 B|-------------------------|-------------------------|

II. Guitars 1 and 2 (w/ dist)

 B|------------------------|---------------------------|
F#|------------------------|---------------------------|
 D|------------------------|---------------------------|
 A|----5s-4-----2-----2----|---------------------------|
 E|----3s-2-----2-----2----|----3--------3-----3-------|\
 B|-0--------0-----------0-|-0--1--0--0--1h-0--1h-0----| \
    *        *           *   *     *  *                   x4
 B|------------------------|---------------------------| /
F#|------------------------|---------------------------|/
 D|------------------------|---------------------------|
 A|----5s-4-----2-----2----|---------------------------|
 E|----3s-2-----2-----2----|----3--------------3-------|
 B|-0--------0-----------0-|-0--1--1--1--1--1--1-------|
    *        *           *   *     *  *  *  *

-----------------------------------------------------------------------------------------
|                                 PRE-CHORUS 2 (01:46-02:01)                            |
-----------------------------------------------------------------------------------------
                                     same as PRE-CHORUS
-----------------------------------------------------------------------------------------
|                                   CHORUS 2 (02:01-02:22)                              |
-----------------------------------------------------------------------------------------
                                       same as CHORUS
-----------------------------------------------------------------------------------------
|                                     SOLO (02:22-02:44)                                |
-----------------------------------------------------------------------------------------

Guitars 1 and 2 (w/ dist) - Rhythm for SOLO

 B|------------------------|---------------------------|
F#|------------------------|---------------------------|
 D|------------------------|---------------------------|
 A|----5s-4-----2-----2----|---------------------------|
 E|----3s-2-----2-----2----|----3--------3-----3-------|\
 B|-0--------0-----------0-|-0--1--0--0--1h-0--1h-0----| \
    *        *           *   *     *  *                   x4
 B|------------------------|---------------------------| /
F#|------------------------|---------------------------|/
 D|------------------------|---------------------------|
 A|----5s-4-----2-----2----|---------------------------|
 E|----3s-2-----2-----2----|----3--------------3-------|
 B|-0--------0-----------0-|-0--1--1--1--1--1--1-------|
    *        *           *   *     *  *  *  *
 B|-------------------------|
F#|-------------------------|
 D|-------------------------|
 A|-------------------------|
 E|----3-----------------3--|
 B|-1--1--1--1--1--1--1--1--|
    *     *  *  *  *  * 

Guitar 3 (w/ dist and delay) - SOLO

7 bars empty, then:

E|----------------------|---------------------------------|-------------------------------------|
B|----------------------|---------------------------------|-------------------------------------|
G|----------------------|-7-----------7-----------7-------|-----7-----------7-9-10-7-9-10-11-10-|
D|----------------2s-9--|---9-8-7-8-9---9-8-7-8-9---9-8-7-|-8-9---9-8-7-8-9---------------------|
A|----------------------|---------------------------------|-------------------------------------|
E|----------------------|---------------------------------|-------------------------------------|
B|----------------------|---------------------------------|-------------------------------------|
                          * * * * * * * * * * * * * * * *   * * * * * * * * * * *  * * *  *  *
E|------------------------7-------------|-7-9-10-9-7----7-9------7-------------|
B|----------7-9-10-7-9-10---10-9-7-9-10-|------------10-----10-9---10-9-8-7----|
G|-9-7-9-10-----------------------------|-----------------------------------10-|
D|--------------------------------------|--------------------------------------|
A|--------------------------------------|--------------------------------------|
E|--------------------------------------|--------------------------------------|
B|--------------------------------------|--------------------------------------|
   * * * *  * * *
E|--------------------------------------|---------------7-------------7---------|
B|-7-9--------------------7-------------|-7-9-10-7-9-10---10-9-7-9-10---10-9-10-|
G|-----10-9-8-10-9-7-9-10---10-9-7-9-10-|---------------------------------------|
D|--------------------------------------|---------------------------------------|
A|--------------------------------------|---------------------------------------|
E|--------------------------------------|---------------------------------------|
B|--------------------------------------|---------------------------------------|

E|-----------11------7-9s14-------9-10-|-12s15----------12-13-15s---------14h15p14----17h18-|
B|--7-9-10------9-10--------10-12------|-------12h14h15----------14-15-17----------17-------|
G|------0------------------------------|----------------------------------------------------|
D|-------------------------------------|----------------------------------------------------|
A|-------------------------------------|----------------------------------------------------|
E|-------------------------------------|----------------------------------------------------|
B|-------------------------------------|----------------------------------------------------|

E|h19~~~~~~~---19--|-19b----pb19---r~~~~~s12--14--|-15~~~~~~~~|~~~~15b----r--|-14~~~~~~|~~~~~s-|
B|----------20-----|------------------------------|-----------|--------------|---------|-------|
G|-----------------|------------------------------|-----------|--------------|---------|-------|
D|-----------------|------------------------------|-----------|--------------|---------|-------|
A|-----------------|------------------------------|-----------|--------------|---------|-------|
E|-----------------|------------------------------|-----------|--------------|---------|-------|
B|-----------------|------------------------------|-----------|--------------|---------|-------|

-----------------------------------------------------------------------------------------
|                                   CHORUS 3 (02:44-02:48)                              |
-----------------------------------------------------------------------------------------
                                        same as CHORUS
-----------------------------------------------------------------------------------------
|                                     OUTRO (02:48-03:21)                               |
-----------------------------------------------------------------------------------------

Guitars 1 and 2 (w/ dist)

 B|------------------------|--------------------------|
F#|------------------------|--------------------------|
 D|------------------------|--------------------------|
 A|------------------------|--------------------------|
 E|------------7b-r--p5----|--------------------------|
 B|-0--0----0--------------|-0-0-0-0-0-0-0-0-6--------|
    *  *    *                * * * * * * * *
 B|-------------------------|-------------------------|
F#|-------------------------|-------------------------|
 D|-------------------------|-------------------------|
 A|-------------------------|-------------------------|
 E|------------4-p1---------|-------------------------|
 B|-0--0----0--------0--0---|-0--3--1--0--3--1--------|
    *  *    *        *  *     *  *  *  *  *
 B|------------------------|--------------------------|
F#|------------------------|--------------------------|
 D|------------------------|--------------------------|
 A|------------------------|--------------------------|
 E|------------7b-r--p5----|--------------------------|
 B|-0--0----0--------------|-0-0-0-0-0-0-0-0-6--------|
    *  *    *                * * * * * * * *
 B|-------------------------|-------------------------|
F#|-------------------------|-------------------------|
 D|-------------------------|-------------------------|
 A|-------------------------|-------------------------|
 E|------------4-p1---------|-------------------------|
 B|-0--0----0--------0--0---|-0--1--------------------|
    *  *    *        *  *     *  

Guitar 3 (w/ dist) - Harmony for gtrs. 1 and 2

 B|------------------------|--------------------------|
F#|------------------------|--------------------------|
 D|------------9b-r--p7----|--------------------------|
 A|------------------------|-----------------8--------|
 E|------------------------|--------------------------|
 B|------------------------|--------------------------|

 B|-------------------------|-------------------------|
F#|-------------------------|-------------------------|
 D|-------------------------|-------------------------|
 A|-------------------------|-------------------------|
 E|------------7-p4---------|-------------------------|
 B|-------------------------|-------------------------|

 B|------------------------|--------------------------|
F#|------------------------|--------------------------|
 D|------------9b-r--p7----|--------------------------|
 A|------------------------|-----------------8--------|
 E|------------------------|--------------------------|
 B|------------------------|--------------------------|

 B|-------------------------|-------------------------|
F#|-------------------------|-------------------------|
 D|-------------------------|-------------------------|
 A|-------------------------|----6--b-----------------|
 E|------------7-p4---------|-------------------------|
 B|-------------------------|-------------------------|

            
            
Suggest correction
Creating personal tab
Creating personal tab
You can edit any tab online and save it as your Personal.

You can edit, replace or remove any tab part or add personal notes – all changes will be seen only by you.

Personal tabs can be accessed anytime from any device, even offline.
Learn more »
comments
print report bad tab
guest
You may want to rate the tab now too:
select rating
Wanna post a correction for this tab? Suggest correction