Oops, an error
Loading. Please wait.

American Capitalist tab

version 2
version 2

Whole song

Interactive

2,271 views 12 this week
no commentswrite comment
1 2 3 4 5
x 4
add to favorites
×
Save as Personal and add changes to this tab that will be seen only by you. Learn more ›
×
You can save this tab as Personal to edit and correct it or add notes. All changes will be seen only by you. Learn more »
launch autoscroll
font size
0
reset
how to read this tab
guitar tuner
edit
Autoscroll
slow
fast
+/-
esc
set tempo
stop
-----------------------------------------------------------------------------------------
|                     FIVE FINGER DEATH PUNCH - AMERICAN CAPITALIST                     |
|                           Album: American Capitalist (2011)                           |
-----------------------------------------------------------------------------------------
           If you have questions or corrections feel free to send me a message:
                        http://profile.ultimate-guitar.com/godspeedy/
                           https://www.facebook.com/Godspeedy14
                           
        Also, check out my Youtube channel: http://www.youtube.com/user/Godspeedy14

                Tuning: 6 string BEADF#B (Rhythm), 7 string BEADGBE (Solo)
                                                        
**************************************GUITAR NOTATIONS***********************************
*                                                                                       *
*                                | *   palm mute         |                              *
*                                | s   slide             |                              *
*                                | h   hammer-on         |                              *
*                                | p   pull-off          |                              *
*                                | ~   vibrato           |                              *
*                                | x   Mute note         |                              *
*                                | b   bend              |                              *
*                                | r   release           |                              *
*                                | ..  let ring          |                              *
*                                | ``  Natural harmonic  |                              *
*                                | \\  whammy bar down   |                              *
*                                                                                       *
*****************************************************************************************

-----------------------------------------------------------------------------------------
|                                    INTRO (00:00-00:25)                                |
-----------------------------------------------------------------------------------------

Guitars 1 and 2 (w/ dist)

 B|----------------------------------------|------------------------------------------|
F#|----------------------------------------|------------------------------------------|
 D|----------------------------------------|------------------------------------------|
 A|----------------------------------------|----s5---5---------5--5-----5--5--5-------|
 E|-2----------------------------------2---|-------------7--7--------7-----------7----|
 B|-0----3--3--0--0--5--3--0--0--0--0--0---|-------------0--------------------------0-|\
         *  *  *  *  *  *  *  *  *  *                *   *  *  *  *  *  *  *  *  *  *   x4
 B|----------------------------------------|-----------------------------------------| /
F#|----------------------------------------|-----------------------------------------|/
 D|----------------------------------------|-----------------------------------------|
 A|----------------------------------------|---10-9--7-----------10-9--7-------------|
 E|-2---------------------------------s7---|------------10-9--------------10-9-------|
 B|-0----3--3--0--0--5--3--0--0--0--0------|------------------10---------------------|
         *  *  *  *  *  *  *  *  *  *          *  *  *  *  *  *  *  *  *  *  

-----------------------------------------------------------------------------------------
|                                   VERSE (00:25-00:38)                                 |
-----------------------------------------------------------------------------------------

 B|------------------------------|---------------------------------|
F#|------------------------------|---------------------------------|
 D|------------------------------|---------------------------------|
 A|------------------------------|-------4---5---7---5-p4----------|
 E|-2----2---4---5---4---2---2---|-------------------------5---5---|
 B|-0----0---2---3---2---0---0---|---0-----------------------------|\
         *   *   *   *   *           *   *                           x2
 B|------------------------------|-----------------------------|    /
F#|------------------------------|-----------------------------|   /
 D|------------------------------|-----------------------------|  /
 A|------------------------------|---5---4---5---4-------------| /
 E|-2----2---4---5---4---2---2---|-------------------5---------|/
 B|-0----0---2---3---2---0---0---|-----------------------5-----|
         *   *   *   *   *           *   *                

-----------------------------------------------------------------------------------------
|                                    CHORUS (00:38-01:10)                               |
-----------------------------------------------------------------------------------------

I. Guitars 1 and 2 (w/ dist)
                      .................           ................ 
 B|--------|--------|-------------3---3-----|-------------5---5------------|
F#|--------|--------|---------3---3---3-----|---------5---5---5------------|
 D|--------|--------|---------5-------------|---------7--------------------| x2
 A|--------|--------|-5---5-----------------|-7---7------------------------|
 E|-2------|--------|-3---------------------|-5----------------------------|
 B|-0------|--------|-----------------------|----------------------0---0---|
                                                                   *   *

   Guitar 3 (w/ dist)

 B|---------------------------|---------------------------------------|
F#|---------------------------|---3-----------------------------------|
 D|------4----5---4---2---4---|-------5---4---5--4--2--0--5--4--2--0--|
 A|---------------------------|---------------------------------------|
 E|---------------------------|---------------------------------------|
 B|---------------------------|---------------------------------------|
                                  
 B|---------------------------|---------------------------------------|
F#|---------------------------|---------------------------------------|
 D|-4----4----5---4---2---4---|---2-----------------------------------|
 A|---------------------------|-------5---4---4--5--5--5--4--4--------|
 E|---------------------------|---------------------------------------|
 B|---------------------------|---------------------------------0--0--|
                                  *   *   *   *  *  *  *  *  *  *  *
 B|------------------------------|---------------------------------------|
F#|------------------------------|---3-----------------------------------|
 D|------4---4---5---4---2---4---|-------5---4---5--4--2--0--5--4--2--0--|
 A|------------------------------|---------------------------------------|
 E|-2----------------------------|---------------------------------------|
 B|-0----------------------------|---------------------------------------|
                                     *   *   *   *  *  *  *  *  *  *  *
                             .........................
 B|------------------------------|-----------0---0---------|
F#|------------------------------|-------3-----------------|
 D|------5---4---5---4---2-------|---2---------------------|
 A|-2------------------------0---|-------------------------|
 E|------------------------------|-------------------------|
 B|------------------------------|-------------------------|               

II. Guitars 1 and 2 (w/ dist)

 B|---------------------------------------------|      |---------------------------------------------|
F#|---------------------------------------------|      |---------------------------------------------|
 D|---------------------------------------------| x3   |---------------------------------------------|
 A|---------------------------------------------|      |---------------------------------------------|
 E|-2---2---------------------------------------|      |-2---2---------------------------------------|
 B|-0---0---3--0--0--0-----0--0--0--3--0--0--0--|      |-0---0---3--0--0--0--5--3--0--0--5--3--0--0--|
    *   *   *  *  *  *     *  *  *  *  *  *  *           *   *   *  *  *  *  *  *  *  *  *  *  *  *

 B|---------------------------------------------|      |---------------------------------------------|
F#|---------------------------------------------|      |---------------------------------------------|
 D|---------------------------------------------| x3   |---------------------------------------------|
 A|---------------------------------------------|      |---------------------------------------------|
 E|-2---2---------------------------------------|      |-2---2---------------------------------------|
 B|-0---0---3--0--0--0-----0--0--0--3--0--0--0--|      |-0---0---3--0--0--0--5--3--0--0--5--3--0--0--|
    *   *   *  *  *  *     *  *  *  *  *  *  *           *   *   *  *  *  *  *  *  *  *  *  *  *  *

 B|----------------------------------------|------------------------------------------|
F#|----------------------------------------|------------------------------------------|
 D|----------------------------------------|------------------------------------------|
 A|----------------------------------------|----s5---5---------5--5-----5--5--5-------|
 E|-2----------------------------------2---|-------------7--7--------7-----------7----|
 B|-0----3--3--0--0--5--3--0--0--0--0--0---|-------------0--------------------------0-|
         *  *  *  *  *  *  *  *  *  *                *   *  *  *  *  *  *  *  *  *  * 
 B|----------------------------------------|-----------------------------------------|
F#|----------------------------------------|-----------------------------------------|
 D|----------------------------------------|-----------------------------------------|
 A|----------------------------------------|---10-9--7-----------10-9--7-------------|
 E|-2---------------------------------s7---|------------10-9--------------10-9-------|
 B|-0----3--3--0--0--5--3--0--0--0--0------|------------------10---------------------|
         *  *  *  *  *  *  *  *  *  *          *  *  *  *  *  *  *  *  *  *  

-----------------------------------------------------------------------------------------
|                                   VERSE 2 (01:10-01:23)                               |
-----------------------------------------------------------------------------------------
                                       same as VERSE                                     
-----------------------------------------------------------------------------------------
|                                   CHORUS 2 (01:23-01:49)                              |
-----------------------------------------------------------------------------------------

I. Guitars 1 and 2 (w/ dist)
                      .................           ................ 
 B|--------|--------|-------------3---3-----|-------------5---5------------|
F#|--------|--------|---------3---3---3-----|---------5---5---5------------|
 D|--------|--------|---------5-------------|---------7--------------------| x2
 A|--------|--------|-5---5-----------------|-7---7------------------------|
 E|-2------|--------|-3---------------------|-5----------------------------|
 B|-0------|--------|-----------------------|----------------------0---0---|
                                                                   *   *

   Guitar 3 (w/ dist)

 B|---------------------------|---------------------------------------|
F#|---------------------------|---3-----------------------------------|
 D|------4----5---4---2---4---|-------5---4---5--4--2--0--5--4--2--0--|
 A|---------------------------|---------------------------------------|
 E|---------------------------|---------------------------------------|
 B|---------------------------|---------------------------------------|
                                  *   *   *   *  *  *  *  *  *  *  *
 B|---------------------------|---------------------------------------|
F#|---------------------------|---------------------------------------|
 D|-4----4----5---4---2---4---|---2-----------------------------------|
 A|---------------------------|-------5---4---4--5--5--5--4--4--------|
 E|---------------------------|---------------------------------------|
 B|---------------------------|---------------------------------0--0--|
                                  *   *   *   *  *  *  *  *  *  *  *    

 B|------------------------------|---------------------------------------|
F#|------------------------------|---3-----------------------------------|
 D|------4---4---5---4---2---4---|-------5---4---5--4--2--0--5--4--2--0--|
 A|------------------------------|---------------------------------------|
 E|-2----------------------------|---------------------------------------|
 B|-0----------------------------|---------------------------------------|
         *   *                       *   *   *   *  *  *  *  *  *  *  *   
                             .........................                 
 B|------------------------------|-----------0---0---------|
F#|------------------------------|-------3-----------------|
 D|------5---4---5---4---2-------|---2---------------------|
 A|-2------------------------0---|-------------------------|
 E|------------------------------|-------------------------|
 B|------------------------------|-------------------------|
                       

II. Guitars 1 and 2 (w/ dist)

 B|---------------------------------------------|      |---------------------------------------------|
F#|---------------------------------------------|      |---------------------------------------------|
 D|---------------------------------------------| x3   |---------------------------------------------|
 A|---------------------------------------------|      |---------------------------------------------|
 E|-2---2---------------------------------------|      |-2---2---------------------------------------|
 B|-0---0---3--0--0--0-----0--0--0--3--0--0--0--|      |-0---0---3--0--0--0--5--3--0--0--5--3--0--0--|
    *   *   *  *  *  *     *  *  *  *  *  *  *           *   *   *  *  *  *  *  *  *  *  *  *  *  *

 B|---------------------------------------------|      |---------------------------------------------|
F#|---------------------------------------------|      |---------------------------------------------|
 D|---------------------------------------------| x3   |---------------------------------------------|
 A|---------------------------------------------|      |---------------------------------------------|
 E|-2---2---------------------------------------|      |-2---2---------------------------------------|
 B|-0---0---3--0--0--0-----0--0--0--3--0--0--0--|      |-0---0---3--0--0--0--5--3--0--0--5--3--0--0--|
    *   *   *  *  *  *     *  *  *  *  *  *  *           *   *   *  *  *  *  *  *  *  *  *  *  *  *

-----------------------------------------------------------------------------------------
|                                     SOLO (01:49-02:27)                                |
-----------------------------------------------------------------------------------------

I. Guitars 1 and 2 (w/ dist) - Rhythm for SOLO

 B|-----------------------------------------|---------------------------------------|
F#|-----------------------------------------|---------------------------------------|
 D|-----------------------------------------|---------------------------------------|
 A|-5-------------------2---------------5---|---2-----------7--6--5--4--------------|
 E|-3---0---0--0--0--0--0---0--0--0--0--3---|---0---0---0---------------8--7--6--5--|\
 B|-----------------------------------------|---------------------------------------| \
        *   *  *  *  *      *  *  *  *              *   *   *  *  *  *  *  *  *  *     x4
 B|-----------------------------------------|-----------------------------------------|/
F#|-----------------------------------------|-----------------------------------------|
 D|-----------------------------------------|-----------------------------------------|
 A|-5-------------------2---------------5---|---5---5---5--5--------------------------|
 E|-3---0---0--0--0--0--0---0--0--0--0--3---|---3---3---3--3--------------------------|
 B|-----------------------------------------|-----------------3--3--3--3--3--3--3--3--|
        *   *  *  *  *      *  *  *  *          *   *   *  *  *  *  *  *  *  *  *  *

   Guitar 3 (w/ dist) - SOLO
                                                                  slide downwards
E|-------------|-----------------|-----------------|-----12--12-----s----------|
B|----`4`\\\\\\|\\\\\\\\\\\\\\---|-11----11----12--|-----15b-15b----s----------|
G|-------------|-----------------|-13b---13b---14b-|--r-------------------7s12-|
D|-------------|-----------------|-----------------|---------------------------|
A|-------------|-----------------|-----------------|---------------------------|
E|-------------|-----------------|-----------------|---------------------------|
B|-------------|-----------------|-----------------|---------------------------|

E|-------------------------------------------------------------------|
B|-10-11-12-11-10----11-10-------10-11-12-11-10----10-11-12-11-10----|
G|----------------12-------12-11----------------12----------------12-|
D|-------------------------------------------------------------------|
A|-------------------------------------------------------------------|
E|-------------------------------------------------------------------|
B|-------------------------------------------------------------------|

E|-------------------------12----------------------------------12-------|
B|-10-11-12-11-10----10-11----11-10----10-11-12-11-10----10-11----11-10-|
G|----------------12----------------12----------------12----------------|
D|----------------------------------------------------------------------|
A|----------------------------------------------------------------------|
E|----------------------------------------------------------------------|
B|----------------------------------------------------------------------|

E|-----------------------------------------------12-------------|
B|----10-11-12-s11-10----10-12-12-14-15-12-14-15----15-14-12-15-|
G|-12-----------------12----------------------------------------|
D|--------------------------------------------------------------|
A|--------------------------------------------------------------|
E|--------------------------------------------------------------|
B|--------------------------------------------------------------|

E|-14-14-14-14-14-15-14-12-14-14-15-14-12-14-14-15-14-12-14-14-14-|
B|----------------------------------------------------------------|
G|----------------------------------------------------------------|
D|----------------------------------------------------------------|
A|----------------------------------------------------------------|
E|----------------------------------------------------------------|
B|----------------------------------------------------------------|


E|-15-14-12-14-14h15--p14p12----14-12-----------12----15b-|-------r-12-----------12----12-12----------|
B|---------------------------15-------15-----12----12-----|------------15-----12----12-------12----12-|
G|---------------------------------------14b--------------|---------------14b-------------------15----|
D|--------------------------------------------------------|-------------------------------------------|
A|--------------------------------------------------------|-------------------------------------------|
E|--------------------------------------------------------|-------------------------------------------|
B|--------------------------------------------------------|-------------------------------------------|

E|-------------------------------------------|-------------------------------------------------|
B|-15b-------r--12-15-12h15-12---12-15----12-|-15----12-15----12-15----12-15----12-15----12-12-|
G|----------------------------14-------14----|----14-------14-------14-------14-------14-------|
D|-------------------------------------------|-------------------------------------------------|
A|-------------------------------------------|-------------------------------------------------|
E|-------------------------------------------|-------------------------------------------------|
B|-------------------------------------------|-------------------------------------------------|

E|-12-13-14-15-14-13-12----------------------------|------------------12------------------------------------|
B|----------------------15-14-13-12-13-14-15-14-13-|-12----12-------------15------12---------12-------------|
G|-------------------------------------------------|----14b---14b------------14------14-14b-----14b14-12----|
D|-------------------------------------------------|-----------------------------------------------------14-|
A|-------------------------------------------------|--------------------------------------------------------|
E|-------------------------------------------------|--------------------------------------------------------|
B|-------------------------------------------------|--------------------------------------------------------|


E|-15b-------15b-----------|-r----b--12------------12-----------------|
B|----------x--------------|------------15------12----12-15b~~~~12s18-|
G|---------x---------------|---------------14b------------------------|
D|-------------------------|------------------------------------------|
A|-------------------------|------------------------------------------|
E|-------------------------|------------------------------------------|
B|-------------------------|------------------------------------------|

E|-15-19-15-17-14----------17-15s14--------------------|
B|----------------17-15p14----------17-15-14-12--14-15-|
G|-----------------------------------------------------|
D|-----------------------------------------------------|
A|-----------------------------------------------------|
E|-----------------------------------------------------|
B|-----------------------------------------------------|

E|--12-14-15----------14-15-17----------15-17-19-|
B|-----------14-15-17----------15-17-19----------|
G|-----------------------------------------------|
D|-----------------------------------------------|
A|-----------------------------------------------|
E|-----------------------------------------------|
B|-----------------------------------------------|

II. Guitars 1 and 2 (w/ dist) - Rhythm for SOLO

                      .................           ................ 
 B|--------|--------|-------------3---3-----|-------------5---5------------|
F#|--------|--------|---------3---3---3-----|---------5---5---5------------|
 D|--------|--------|---------5-------------|---------7--------------------| x2
 A|--------|--------|-5---5-----------------|-7---7------------------------|
 E|-2------|--------|-3---------------------|-5----------------------------|
 B|-0------|--------|-----------------------|----------------------0---0---|
                                                                   *   *

    Guitar 3 (w/ dist) - SOLO

E|-17b~~~~~~|~~~~~~~~~~~14--h15--|-----------15--|------------------------|-------17-----------|
B|----------|--------------------|-17b-----------|-17~~~~~~~~~~~~17---14--|-15~~~~----15---14b-|
G|----------|--------------------|---------------|------------------------|--------------------|
D|----------|--------------------|---------------|------------------------|--------------------|
A|----------|--------------------|---------------|------------------------|--------------------|
E|----------|--------------------|---------------|------------------------|--------------------|

E|-----------------------|-----------------------|------------------------------|-7~~~~~~|~~~~~~~~|
B|-14---~~~~~~~--7---h8--|-----------7---8---5---|----------------------7--8--10|--------|--------|
G|-----------------------|-9b--------------------|-7s9~~~~~s---6--7--9----------|--------|--------|
D|-----------------------|-----------------------|------------------------------|--------|--------|
A|-----------------------|-----------------------|------------------------------|--------|--------|
E|-----------------------|-----------------------|------------------------------|--------|--------|

    Guitar 4 (w/ dist) - Harmony for SOLO

E|-21b~~~~~~|~~~~~~~~~~~17----|------------19--|
B|----------|-----------------|-20b------------|
G|----------|-----------------|----------------|
D|----------|-----------------|----------------|
A|----------|-----------------|----------------|
E|----------|-----------------|----------------|

E|------------------------|---------------------|------------------------|----------------------|
B|-20---~~~~~~~~~20---17--|-19~~~~17--19---17b--|-17--~~~~~~~s--10--h12--|----------10--12------|
G|------------------------|---------------------|------------------------|-12b--------------12--|
D|------------------------|---------------------|------------------------|----------------------|
A|------------------------|---------------------|------------------------|----------------------|
E|------------------------|---------------------|------------------------|----------------------|

E|-------------------------------|-10~~~~~|~~~~~~~~|
B|----------------------10-12-14-|--------|--------|
G|-11s12~~~~s--9--11-12----------|--------|--------|
D|-------------------------------|--------|--------|
A|-------------------------------|--------|--------|
E|-------------------------------|--------|--------|

-----------------------------------------------------------------------------------------
|                                   CHORUS 3 (02:27-03:06)                              |
-----------------------------------------------------------------------------------------

I. Guitars 1 and 2 (w/ dist)
                      .................           ................ 
 B|--------|--------|-------------3---3-----|-------------5---5------------|
F#|--------|--------|---------3---3---3-----|---------5---5---5------------|
 D|--------|--------|---------5-------------|---------7--------------------| x4
 A|--------|--------|-5---5-----------------|-7---7------------------------|
 E|-2------|--------|-3---------------------|-5----------------------------|
 B|-0------|--------|-----------------------|----------------------0---0---|
                                                                   *   *

   Guitar 3 (w/ dist)
                                                               -------------------|
 B|---------------------------|---------------------------------------|           |
F#|---------------------------|---3-----------------------------------|           |
 D|------4----5---4---2---4---|-------5---4---5--4--2--0--5--4--2--0--|           |
 A|---------------------------|---------------------------------------|           |
 E|---------------------------|---------------------------------------|           |
 B|---------------------------|---------------------------------------|           |
                                  *   *   *   *  *  *  *  *  *  *  *              |
 B|---------------------------|---------------------------------------|           |
F#|---------------------------|---------------------------------------|           |
 D|-4----4----5---4---2---4---|---2-----------------------------------|           | 
 A|---------------------------|-------5---4---4--5--5--5--4--4--------|           |
 E|---------------------------|---------------------------------------|           |
 B|---------------------------|---------------------------------0--0--|           |
                                  *   *   *   *  *  *  *  *  *  *  *              | x2
 B|------------------------------|---------------------------------------|        |
F#|------------------------------|---3-----------------------------------|        |
 D|------4---4---5---4---2---4---|-------5---4---5--4--2--0--5--4--2--0--|        |
 A|------------------------------|---------------------------------------|        | 
 E|-2----------------------------|---------------------------------------|        |
 B|-0----------------------------|---------------------------------------|        |
         *   *                       *   *   *   *  *  *  *  *  *  *  *           |
                             .........................                            |
 B|------------------------------|-----------0---0---------|                      |
F#|------------------------------|-------3-----------------|                      |
 D|------5---4---5---4---2-------|---2---------------------|                      |
 A|-2------------------------0---|-------------------------|                      |
 E|------------------------------|-------------------------|                      |
 B|------------------------------|-------------------------|                      |
                                                       ---------------------------|

II. Guitars 1 and 2 (w/ dist)

 B|---------------------------------------------|      |---------------------------------------------|
F#|---------------------------------------------|      |---------------------------------------------|
 D|---------------------------------------------| x3   |---------------------------------------------|
 A|---------------------------------------------|      |---------------------------------------------|
 E|-2---2---------------------------------------|      |-2---2---------------------------------------|
 B|-0---0---3--0--0--0-----0--0--0--3--0--0--0--|      |-0---0---3--0--0--0--5--3--0--0--5--3--0--0--|
    *   *   *  *  *  *     *  *  *  *  *  *  *           *   *   *  *  *  *  *  *  *  *  *  *  *  *

 B|---------------------------------------------|      |---------------------------------------------|
F#|---------------------------------------------|      |---------------------------------------------|
 D|---------------------------------------------| x3   |---------------------------------------------|
 A|---------------------------------------------|      |---------------------------------------------|
 E|-2---2---------------------------------------|      |-2---2---------------------------------------|
 B|-0---0---3--0--0--0-----0--0--0--3--0--0--0--|      |-0---0---3--0--0--0--5--3--0--0--5--3--0--0--|
    *   *   *  *  *  *     *  *  *  *  *  *  *           *   *   *  *  *  *  *  *  *  *  *  *  *  *

-----------------------------------------------------------------------------------------
|                                     OUTRO (03:06-03:28)                               |
-----------------------------------------------------------------------------------------

Guitars 1 and 2 (w/ dist)
                      .................           ................ 
 B|--------|--------|-------------3---3-----|-------------5---5------------|
F#|--------|--------|---------3---3---3-----|---------5---5---5------------|
 D|--------|--------|---------5-------------|---------7--------------------| x2
 A|--------|--------|-5---5-----------------|-7---7------------------------|
 E|-2------|--------|-3---------------------|-5----------------------------|
 B|-0------|--------|-----------------------|----------------------0---0---|
                                                                   *   *

Guitars 1 and 2 (w/ dist)
        
 B|--------|--------|
F#|--------|--------|
 D|--------|--------|
 A|--------|--------|
 E|-2------|--------|
 B|-0------|--------|
                    

            
            
Suggest correction
Creating personal tab
Creating personal tab
You can edit any tab online and save it as your Personal.

You can edit, replace or remove any tab part or add personal notes – all changes will be seen only by you.

Personal tabs can be accessed anytime from any device, even offline.
Learn more »
comments
print report bad tab
guest
You may want to rate the tab now too:
select rating
Wanna post a correction for this tab? Suggest correction