Oops, an error
Loading. Please wait.

Generation Dead bass

version 1
version 1

Whole song

  • Tabbed on a 4 string bass in B standard tuning (BE... Show more

Interactive

286 views 3 this week
no commentswrite comment
1 2 3 4 5
3 more votes to show rating
add to favorites
×
Save as Personal and add changes to this tab that will be seen only by you. Learn more ›
×
You can save this tab as Personal to edit and correct it or add notes. All changes will be seen only by you. Learn more »
launch autoscroll
font size
0
reset
guitar tuner
edit
Autoscroll
slow
fast
+/-
esc
set tempo
stop
About this tab version
Tabbed on a 4 string bass in B standard tuning (BEAD), but could be played on a 5 string bass in standard tuning (BEADG) too as no notes played on the G string. Was this info helpful? Yes No
Title: Generation Dead
Artist: Five Finger Death Punch
Album: American Capitalist
Tuning: B Standard Tuning (BEAD)
Tab Author: Pearce Hamblin (The Bass Diaries)


  [4/4 - Intro]
D|----------------------------------|-----------------------------------|----------------------------------|
A|----------------------------------|-----------------------------------|----------------------------------|
E|----------------------------------|-----------------------8---10//14--|----------------------------------|
B|-0---X--5//12--12-----5//12--12\\\|\0---X--5--12--12--6---------------|-0---X--5//12--12--0--5//12--12\\\|


D|-------------------------------------|----------------------------------|
A|-------------------------------------|----------------------------------|
E|------------------------10-12-10-----|----------------------------------|
B|\0---X--5//12--12--13------------8\\\|\0---X--5//12--12-----5//12--12\\\|


D|-----------------------------------|----------------------------------|
A|-----------------------------------|----------------------------------|
E|-----------------------8---10--8---|----------------------------------|
B|\0---X--5//12--12--6---------------|-0---X--5//12--12--0--5//12--12\\\|


D|-------------------------------------|----------------------------------|
A|-------------------------------------|----------------------------------|
E|------------------------10-12-10-----|----------------------------------|
B|\0---X--5//12--12--13------------8\\\|\0---X--5//12--12-----5//12--12\\\|


D|-----------------------------------|----------------------------------|--------------------------------|
A|-----------------------------------|----------------------------------|--------------------------------|
E|-----------------------8---10--8---|----------------------------------|--------------------------------|
B|\0---X--5//12--12--6---------------|-0---X--5//12--12--0--5//12--12\\\|\0---X--5//12--12--13---13\\10--|

  [Verse 1]
D|---------------------------------------|-------------------------|---------------------------------------|
A|---------------------------------------|-------------------------|---------------------------------------|
E|---------------------------------------|-------------------------|---------------------------------------|
B|-0---X--X--0---0---X--X--0---0---X--X--|-0---X--X--0---0---6-----|-0---X--X--0---0---X--X--0---0---X--X--|


D|--------------------------------|---------------------------------------|-------------------------|
A|--------------------------------|---------------------------------------|-------------------------|
E|----------------------------14--|---------------------------------------|-------------------------|
B|-0---X--X--0---0---1----13------|-0---X--X--0---0---X--X--0---0---X--X--|-0---0--X--X---0---6-----|


D|---------------------------------------|--------------------------------|
A|---------------------------------------|--------------------------------|
E|---------------------------------------|----------------------------14--|
B|-0---X--X--0---0---X--X--0---0---X--X--|-0---X--X--0---0---1----13------|

  [Pre-Chorus 1]
D|-------------------------------------------------|---------------------------------------|
A|-------------------------------------------------|---------------------------------------|
E|-------------------------------------------------|-------------------------5----7----8---|
B|-5--5--5--5--5--5--5--5--7--7--7--7--7--7--7--7--|-8--8--8--8--8--8--8--8----------------|

  [2/4]           [4/4 - Chorus 1]
D|---------------|-------------------------------------------------|
A|---------------|-------------------------------------------------|
E|---------------|-0--0--0--0--0--0--0--0--0--0--0--0--2--3--2--0--|
B|-5----7----8---|-------------------------------------------------|


D|-------------------------------------------------|-------------------------------------------------|
A|-------------------------------------------------|----------------------------0--0--0--2--2--2--2--|
E|-------------------------------------0--0--0--0--|-3--3--3--3--3--3--3--3--3-----------------------|
B|-1--1--1--1--1--1--3--3--3--3--3--3--------------|-------------------------------------------------|


D|---------------------------------------------|-------------------------------------------------|
A|---------------------------------------------|-------------------------------------------------|
E|---------------------------------------------|-0--0--0--0--0--0--0--0--0--0--0--0--2--3--2--0--|
B|-3--3--3--3--3--3--4--4--4--4-----5-----7----|-------------------------------------------------|


D|-------------------------------------------------|-------------------------------------------------|
A|-------------------------------------------------|----------------------------0--0--0--2--2--2--2--|
E|-------------------------------------0--0--0--0--|-3--3--3--3--3--3--3--3--3-----------------------|
B|-1--1--1--1--1--1--3--3--3--3--3--3--------------|-------------------------------------------------|

                                                [Post-Chorus 1]
D|---------------------------------------------|---------------------------------------|
A|---------------------------------------------|---------------------------------------|
E|---------------------------------------------|---------------------------------------|
B|-3--3--3--3--3--3--4--4--4--4-----5-----7----|-1---0---X--X--X--1----0---X--X--X--X--|


D|--------------------------------|---------------------------------------|--------------------------------|
A|--------------------------------|---------------------------3--3--3--5--|--------------------------------|
E|---------7--7--7-------8---10\\\|---------------------------------------|---------7--7--7-------8---10\\\|
B|-1---0------------6-------------|-1---0---X--X--X--1----0---------------|-1---0------------6-------------|

  [Verse 2]
D|---------------------------------------|-------------------------|---------------------------------------|
A|---------------------------------------|-------------------------|---------------------------------------|
E|---------------------------------------|-------------------------|---------------------------------------|
B|-0---X--X--0---0---X--X--0---0---X--X--|-0---X--X--0---0---6-----|-0---X--X--0---0---X--X--0---0---X--X--|


D|--------------------------------|---------------------------------------|-------------------------|
A|--------------------------------|---------------------------------------|-------------------------|
E|----------------------------14--|---------------------------------------|-------------------------|
B|-0---X--X--0---0---1----13------|-0---X--X--0---0---X--X--0---0---X--X--|-0---X--X--0---0---6-----|


D|---------------------------------------|--------------------------------|
A|---------------------------------------|--------------------------------|
E|---------------------------------------|----------------------------14--|
B|-0---X--X--0---0---X--X--0---0---X--X--|-0---X--X--0---0---1----13------|

  [Pre-Chorus 2]
D|-------------------------------------------------|---------------------------------------|
A|-------------------------------------------------|---------------------------------------|
E|-------------------------------------------------|-------------------------5----7----8---|
B|-5--5--5--5--5--5--5--5--7--7--7--7--7--7--7--7--|-8--8--8--8--8--8--8--8----------------|

  [2/4]           [4/4 - Chorus 2]
D|---------------|-------------------------------------------------|
A|---------------|-------------------------------------------------|
E|---------------|-0--0--0--0--0--0--0--0--0--0--0--0--2--3--2--0--|
B|-5----7----8---|-------------------------------------------------|


D|-------------------------------------------------|-------------------------------------------------|
A|-------------------------------------------------|----------------------------0--0--0--2--2--2--2--|
E|-------------------------------------0--0--0--0--|-3--3--3--3--3--3--3--3--3-----------------------|
B|-1--1--1--1--1--1--3--3--3--3--3--3--------------|-------------------------------------------------|


D|---------------------------------------------|-------------------------------------------------|
A|---------------------------------------------|-------------------------------------------------|
E|---------------------------------------------|-0--0--0--0--0--0--0--0--0--0--0--0--2--3--2--0--|
B|-3--3--3--3--3--3--4--4--4--4-----5-----7----|-------------------------------------------------|


D|-------------------------------------------------|-------------------------------------------------|
A|-------------------------------------------------|----------------------------0--0--0--2--2--2--2--|
E|-------------------------------------0--0--0--0--|-3--3--3--3--3--3--3--3--3-----------------------|
B|-1--1--1--1--1--1--3--3--3--3--3--3--------------|-------------------------------------------------|

                                                [Post-Chorus 2]
D|---------------------------------------------|---------------------------------------|
A|---------------------------------------------|---------------------------------------|
E|---------------------------------------------|---------------------------------------|
B|-3--3--3--3--3--3--4--4--4--4-----5-----7----|-1---0---X--X--X--1----0---X--X--X--X--|


D|--------------------------------|-------------------------------------------------|
A|--------------------------------|-------------------------------------------------|
E|---------7--7--7-------8---10\\\|\0--0--0--0--0--0--0--0--2--2--2--2--2--2--2--2--|
B|-1---0------------6-------------|-------------------------------------------------|


D|---------------------------------------|-------------------------------------------------|
A|-------------------------0----2----3---|-------------------------------------------------|
E|-3--3--3--3--3--3--3--3----------------|-0--0--0--0--0--0--0--0--2--2--2--2--2--2--2--2--|
B|---------------------------------------|-------------------------------------------------|


D|---------------------------------------|-------------------------------------------------|
A|-------------------------0----2----3---|-------------------------------------------------|
E|-3--3--3--3--3--3--3--3----------------|-0--0--0--0--0--0--0--0--2--2--2--2--2--2--2--2--|
B|---------------------------------------|-------------------------------------------------|

                                                                [Breakdown]
D|---------------------------------------|---------------------|--------|--------|
A|-------------------------0----2----3---|-0----2----3---------|--------|--------|
E|-3--3--3--3--3--3--3--3----------------|---------------------|--------|--------|
B|---------------------------------------|---------------------|--------|--------|

                                       [Chorus 3]
D|--------|---------------------------|-------------------------------------------------|
A|--------|---------------------------|-------------------------------------------------|
E|--------|---------------------------|-0--0--0--0--0--0--0--0--0--0--0--0--2--3--2--0--|
B|--------|----------4-----5-----7----|-------------------------------------------------|


D|-------------------------------------------------|-------------------------------------------------|
A|-------------------------------------------------|----------------------------0--0--0--2--2--2--2--|
E|-------------------------------------0--0--0--0--|-3--3--3--3--3--3--3--3--3-----------------------|
B|-1--1--1--1--1--1--3--3--3--3--3--3--------------|-------------------------------------------------|


D|---------------------------------------------|-------------------------------------------------|
A|---------------------------------------------|-------------------------------------------------|
E|---------------------------------------------|-0--0--0--0--0--0--0--0--0--0--0--0--2--3--2--0--|
B|-3--3--3--3--3--3--4--4--4--4-----5-----7----|-------------------------------------------------|


D|-------------------------------------------------|-------------------------------------------------|
A|-------------------------------------------------|----------------------------0--0--0--2--2--2--2--|
E|-------------------------------------0--0--0--0--|-3--3--3--3--3--3--3--3--3-----------------------|
B|-1--1--1--1--1--1--3--3--3--3--3--3--------------|-------------------------------------------------|


D|---------------------------------------------|-------------------------------------------------|
A|---------------------------------------------|-------------------------------------------------|
E|---------------------------------------------|-0--0--0--0--0--0--0--0--0--0--0--0--2--3--2--0--|
B|-3--3--3--3--3--3--4--4--4--4-----5-----7----|-------------------------------------------------|


D|-------------------------------------------------|-------------------------------------------------|
A|-------------------------------------------------|----------------------------0--0--0--2--2--2--2--|
E|-------------------------------------0--0--0--0--|-3--3--3--3--3--3--3--3--3-----------------------|
B|-1--1--1--1--1--1--3--3--3--3--3--3--------------|-------------------------------------------------|

                                                [Post-Chorus 3/Outro]
D|---------------------------------------------|---------------------------------------|
A|---------------------------------------------|---------------------------------------|
E|---------------------------------------------|---------------------------------------|
B|-3--3--3--3--3--3--4--4--4--4-----5-----7----|-1---0---X--X--X--1----0---X--X--X--X--|


D|--------------------------------|---------------------------------------|--------------------------------|
A|--------------------------------|---------------------------3--3--3--5--|--------------------------------|
E|---------7--7--7-------8---10\\\|---------------------------------------|---------7--7--7-------8---10\\\|
B|-1---0------------6-------------|-1---0---X--X--X--1----0---------------|-1---0------------6-------------|


***********************************
| /   Slide up
| \   Slide down
| X   Dead note
***********************************

            
            
Suggest correction
Creating personal tab
Creating personal tab
You can edit any tab online and save it as your Personal.

You can edit, replace or remove any tab part or add personal notes – all changes will be seen only by you.

Personal tabs can be accessed anytime from any device, even offline.
Learn more »
Give kudos to tab author, rate the tab!
1 2 3 4 5
comments
print report bad tab
guest
You may want to rate the tab now too:
select rating
Wanna post a correction for this tab? Suggest correction