Oops, an error
Loading. Please wait.

If I Fall tab

version 1
version 1

Whole song

Interactive

2,465 views 24 this week
no commentswrite comment
1 2 3 4 5
x 3
add to favorites
×
Save as Personal and add changes to this tab that will be seen only by you. Learn more ›
×
You can save this tab as Personal to edit and correct it or add notes. All changes will be seen only by you. Learn more »
launch autoscroll
font size
0
reset
how to read this tab
guitar tuner
edit
Autoscroll
slow
fast
+/-
esc
set tempo
stop
-----------------------------------------------------------------------------------------
|                          FIVE FINGER DEATH PUNCH - IF I FALL                          |
|                           Album: American Capitalist (2011)                           |
-----------------------------------------------------------------------------------------
           If you have questions or corrections feel free to send me a message:
                        http://profile.ultimate-guitar.com/godspeedy/
                           https://www.facebook.com/Godspeedy14
                           
        Also, check out my Youtube channel: http://www.youtube.com/user/Godspeedy14

                         Tuning: 6 string BEADF#B, 7 string BEADGBE
                                                        
**************************************GUITAR NOTATIONS***********************************
*                                                                                       *
*                                | *   palm mute         |                              *
*                                | s   slide             |                              *
*                                | h   hammer-on         |                              *
*                                | p   pull-off          |                              *
*                                | ~   vibrato           |                              *
*                                | x   Mute note         |                              *
*                                | b   bend              |                              *
*                                | ..  let ring          |                              *
*                                                                                       *
*****************************************************************************************

-----------------------------------------------------------------------------------------
|                                    INTRO (00:00-00:30)                                |
-----------------------------------------------------------------------------------------

I. Guitar 1 (w/ clean and phaser)
    .................................................
 B|------------------------|-------------------------|
F#|-13----13----13----13---|-12----10-10-12----10----|
 D|----9-----9-----9-----9-|----9------------9-----9-|
 A|------------------------|-------------------------|
 E|------------------------|-------------------------|
 B|------------------------|-------------------------|\
   .................................................   x2
 B|-------------------------|------------------------|/
F#|-12----10-12--------12---|-12----10-12-------12---|
 D|----9---------9--9-----9-|----9--------9--9-----9-|
 A|-------------------------|------------------------|
 E|-------------------------|------------------------|
 B|-------------------------|------------------------|
   ..................................................................
 B|------------------------|------------------------|--------|--------|
F#|-13----13----13----13---|-12----10-10-12----10---|-12-----|--------|
 D|----9-----9-----9-----9-|----9-----------9-----9-|-9------|--------|
 A|------------------------|------------------------|--------|--------|
 E|------------------------|------------------------|--------|--------|
 B|------------------------|------------------------|--------|--------|

   Guitar 2 (acoustic guitar)

3 bars empty, then:

 B|--------------7---------|-----------------|
F#|-7-h8-p7----------7-h8~~|~~~~~~~----------|
 D|----------9-------------|-----------------|
 A|------------------------|-----------------|
 E|------------------------|-----------------|
 B|------------------------|-----------------|

4 bars empty, then:

 B|--------------7---------|-----------------|
F#|-7-h8-p7----------7-h8~~|~~~~~~~----------|
 D|----------9-------------|-----------------|
 A|------------------------|-----------------|
 E|------------------------|-----------------|
 B|------------------------|-----------------|

   Guitar 3 (acoustic guitar)

 B|-----------------|-----------------|-----------------|-----------------|
F#|-------------0---|-------------0---|-----------------|-----------------|
 D|---------5-------|---------5-------|---------2---0---|-----------------|
 A|-----2-----------|-----2-----------|-----2-----------|-----2---4--h5---|
 E|-3---------------|-0---------------|-----------------|-----------------|
 B|-----------------|-----------------|-0---------------|-0---------------|

 B|-----------------|-------|-------|-------|
F#|-------------0---|-------|-------|-------|
 D|---------5-------|-------|-------|-------|
 A|-----2-----------|-------|-------|-------|
 E|-3---------------|-0-----|-------|-------|
 B|-----------------|-------|-0-----|-------|

II. Guitars 1 and 2 (w/ dist)

 B|---------------|--------------------------|-------------------------------|
F#|---------------|--------------------------|-------------------------------|
 D|---------------|--------------------------|-------------------------------|
 A|-------x-------|-7-s9------7-s9------7-s9-|-----10s9----------------------|
 E|--------x------|-5-s7------5-s7------5-s7-|-----8-s7----------------------|
 B|---------15s---|-------0-0-------0-0------|-0-0-------0-0-3-3-5-5-7-5-3-0-|
     slide downwards      * *       * *        * *       * * * * * * * * * *
 B|---------------------------|-------------------------------|
F#|---------------------------|-------------------------------|
 D|---------------------------|-------------------------------|
 A|-7-s9------7-s9-------7-s9-|-----10s9------------------2---|
 E|-5-s7------5-s7-------5-s7-|-----8-s7------------------0---|
 B|-------0-0-------0-0-------|-0-0-------0-0-1-0-0-1-0-0-----|
          * *       * *         * *       * * * * * *
 B|--------------------------|-------------------------------|
F#|--------------------------|-------------------------------|
 D|--------------------------|-------------------------------|
 A|-7-s9------7-s9------7-s9-|-----10s9----------------------|
 E|-5-s7------5-s7------5-s7-|-----8-s7----------------------|
 B|-------0-0-------0-0------|-0-0-------0-0-3-3-5-5-7-5-3-0-|
          * *       * *        * *       * * * * * * * * * *
 B|---------------|----------------|
F#|---------------|----------------|
 D|---------------|----------------|
 A|---------------|----------------|
 E|-5----5----7---|---7-------5----|
 B|-3----3----5---|---5----3--3----|
                           *

-----------------------------------------------------------------------------------------
|                                   VERSE (00:30-00:54)                                 |
-----------------------------------------------------------------------------------------

Guitars 1 and 2 (w/ dist)
                                                    ---------------------|
 B|----------------------------|-------------------------------|         |
F#|----------------------------|-------------------------------|         | 
 D|----------------------------|-------------------------------|         |
 A|----------------------------|-------------------------------|         |
 E|--5-h7------5-h7-------5-h7-|-----5-h7----------------------|         |
 B|--------0-0-------0-0-------|-0-0-------0-0-3-3-5-5-7-5-3-0-|         |
           * *       * *         * *       * * * * * * * * * *           |
 B|----------------------------|-------------------------|               |
F#|----------------------------|-------------------------|               |
 D|----------------------------|-------------------------|               |
 A|----------------------------|------5-s7--7--7--5--4---|               |
 E|--5-h7------5-h7-------5-h7-|------5-s7--7--7--7--5---|               | 
 B|--------0-0-------0-0-------|-0-0---------------------|               | 
           * *       * *         * *                                     |  x2
 B|----------------------------|-------------------------------|         | 
F#|----------------------------|-------------------------------|         | 
 D|----------------------------|-------------------------------|         |
 A|----------------------------|-------------------------------|         |
 E|--5-h7------5-h7-------5-h7-|-----5-h7----------------------|         |
 B|--------0-0-------0-0-------|-0-0-------0-0-3-3-5-5-7-5-3-0-|         |
           * *       * *         * *       * * * * * * * * * *           |
 B|---------------|----------------|                                     |
F#|---------------|----------------|                                     |
 D|---------------|----------------|                                     |
 A|---------------|----------------|                                     |
 E|-5----5----7---|---7-------5----|                                     |
 B|-3----3----5---|---5----3--3----|                                     |
                           *     ----------------------------------------|
                                      
-----------------------------------------------------------------------------------------
|                                    CHORUS (00:54-01:18)                               |
-----------------------------------------------------------------------------------------

Guitars 1 and 2 (w/ dist)
                                                                 ------------|
 B|-------------------------|-----------------|------------------------|     |
F#|-------------------------|----5--5----5----|------------------------|     |
 D|-5--5--5----------5---5--|-5--4--4----4----|------------------------|     |
 A|-5--5--5----------5---5--|-5--2--2----2----|------------------------|     |
 E|-3--3--3----------3---3--|-3--0--0----0----|-5--2--2------2------2--|     |
 B|-------------------------|-----------------|-3--0--0---0--0------0--|     |
                                                          *         *        |
 B|---------------------|--------------------------|----------------|        |
F#|---------------------|--------------------------|----5--5---5----|        |
 D|---------------------|-5--5---5----------5---5--|-5--4--4---4----|        |
 A|---------------------|-5--5---5----------5---5--|-5--2--2---2----|        | x2
 E|-2--2---2--5--5---5--|-3--3---3----------3---3--|-3--0--0---0----|        |
 B|-0--0---0--3--3---3--|--------------------------|----------------|        |
    *  *   *  *  *   *                                                       |
 B|--------------------|----------------------|                              |
F#|--------------------|----------------------|                              |
 D|--------------------|----------------------|                              |
 A|--------------------|----------------------|                              |
 E|--------------------|----------2-----------|                              |
 B|-3--0---0-----3--0--|---0---0-----3--5-p3--|                              |
                                          -----------------------------------|

-----------------------------------------------------------------------------------------
|                                   VERSE 2 (01:18-01:54)                               |
-----------------------------------------------------------------------------------------

Guitars 1 and 2 (w/ dist)

 B|--------------------------|-------------------------------|
F#|--------------------------|-------------------------------|
 D|--------------------------|-------------------------------|
 A|-7-s9------7-s9------7-s9-|-----10s9----------------------|
 E|-5-s7------5-s7------5-s7-|-----8-s7----------------------|
 B|-------0-0-------0-0------|-0-0-------0-0-3-3-5-5-7-5-3-0-|
          * *       * *        * *       * * * * * * * * * *
 B|---------------------------|-------------------------------|
F#|---------------------------|-------------------------------|
 D|---------------------------|-------------------------------|
 A|-7-s9------7-s9-------7-s9-|-----10s9------------------2---|
 E|-5-s7------5-s7-------5-s7-|-----8-s7------------------0---|
 B|-------0-0-------0-0-------|-0-0-------0-0-1-0-0-1-0-0-----|
          * *       * *         * *       * * * * * *
 B|--------------------------|-------------------------------|
F#|--------------------------|-------------------------------|
 D|--------------------------|-------------------------------|
 A|-7-s9------7-s9------7-s9-|-----10s9----------------------|
 E|-5-s7------5-s7------5-s7-|-----8-s7----------------------|
 B|-------0-0-------0-0------|-0-0-------0-0-3-3-5-5-7-5-3-0-|
          * *       * *        * *       * * * * * * * * * *
 B|---------------|----------------|
F#|---------------|----------------|
 D|---------------|----------------|
 A|---------------|----------------|
 E|-5----5----7---|---7-------5----|
 B|-3----3----5---|---5----3--3----|
                           *
                                                    ---------------------|
 B|----------------------------|-------------------------------|         |
F#|----------------------------|-------------------------------|         | 
 D|----------------------------|-------------------------------|         |
 A|----------------------------|-------------------------------|         |
 E|--5-h7------5-h7-------5-h7-|-----5-h7----------------------|         |
 B|--------0-0-------0-0-------|-0-0-------0-0-3-3-5-5-7-5-3-0-|         |
           * *       * *         * *       * * * * * * * * * *           |
 B|----------------------------|-------------------------|               |
F#|----------------------------|-------------------------|               |
 D|----------------------------|-------------------------|               |
 A|----------------------------|------5-s7--7--7--5--4---|               |
 E|--5-h7------5-h7-------5-h7-|------5-s7--7--7--7--5---|               | 
 B|--------0-0-------0-0-------|-0-0---------------------|               | 
           * *       * *         * *                                     |  x2
 B|----------------------------|-------------------------------|         | 
F#|----------------------------|-------------------------------|         | 
 D|----------------------------|-------------------------------|         |
 A|----------------------------|-------------------------------|         |
 E|--5-h7------5-h7-------5-h7-|-----5-h7----------------------|         |
 B|--------0-0-------0-0-------|-0-0-------0-0-3-3-5-5-7-5-3-0-|         |
           * *       * *         * *       * * * * * * * * * *           |
 B|---------------|----------------|                                     |
F#|---------------|----------------|                                     |
 D|---------------|----------------|                                     |
 A|---------------|----------------|                                     |
 E|-5----5----7---|---7-------5----|                                     |
 B|-3----3----5---|---5----3--3----|                                     |
                           *     ----------------------------------------|
                                     
-----------------------------------------------------------------------------------------
|                                   CHORUS 2 (01:54-02:18)                              |
-----------------------------------------------------------------------------------------
                                       same as CHORUS                                      
-----------------------------------------------------------------------------------------
|                                    BRIDGE (02:18-3:03)                               |
-----------------------------------------------------------------------------------------

I. Guitars 1 and 2 (w/ dist)

 B|----------------------------|-----------------------------|
F#|----------------------------|-----------------------------|
 D|----------------------------|-----------------------------|
 A|----------------------------|-----------------------------|
 E|----------------------------|-----------------------------|\
 B|-0--0-0-0--0-----0-0-0-0--0-|-0--0-0-0--0-----0-0-0-0--0--| \
    *  * * *  *     * * * *  *   *  * * *  *     * * * *  *     x2
 B|----------------------------|------------------------------|/
F#|----------------------------|------------------------------|
 D|----------------------------|------------------------------|
 A|----------------------------|------------------------------|
 E|----------------------------|------------------------------|
 B|-0--0-0-0--0-----0-0-0-0--0-|-0--0-0-0--0--0-0-0-0-0-0-0-0-|
    *  * * *  *     * * * *  *   *  * * *  *  * * * * * * * *

   Guitar 3 (w/ clean and phaser)

 B|-----------------------|--------------------|--------------------|---------------------|
F#|-12-----12-12----12-12-|-13-----13-13----13-|-10----10-10-----10-|-12-----12-12----12--|
 D|-----9--------9--------|-----9--------9-----|----9--------9------|----9---------9------| x2
 A|-----------------------|--------------------|--------------------|---------------------|
 E|-----------------------|--------------------|--------------------|---------------------|
 B|-----------------------|--------------------|--------------------|---------------------|

II. Guitars 1 and 2 (w/ dist)

 B|----------------------------|-----------------------------|
F#|----------------------------|-----------------------------|
 D|----------------------------|-----------------------------|
 A|----------------------------|-----------------------------|
 E|----------------------------|-----------------------------|\
 B|-0--0-0-0--0-----0-0-0-0--0-|-0--0-0-0--0-----0-0-0-0--0--| \
    *  * * *  *     * * * *  *   *  * * *  *     * * * *  *     x2
 B|----------------------------|------------------------------|/
F#|----------------------------|------------------------------|
 D|----------------------------|------------------------------|
 A|----------------------------|------------------------------|
 E|----------------------------|------------------------------|
 B|-0--0-0-0--0-----0-0-0-0--0-|-0--0-0-0--0--0-0-0-0-0-0-0-0-|
    *  * * *  *     * * * *  *   *  * * *  *  * * * * * * * *

    Guitar 3 (w/ dist)

 E|-------2--------2---------|-------3--------3---------|-------------------------|
 B|----3--------3------------|----3--------3------------|----3--5----3--5---------|
 G|-4--------4------------4--|----------4------------4--|---------4------------2--|
 D|--------------------------|--------------------------|-------------------------|
 A|--------------------------|--------------------------|-------------------------|
 E|--------------------------|--------------------------|-------------------------|
 B|--------------------------|--------------------------|-------------------------|
    *  *  *  *  *  *      *       *  *  *  *  *      *       *  * *  *  *      *
 E|--------------------------|-------2--------2---------|
 B|----3--2-----2--3---------|----3--------3------------|
 G|----------4------------4--|----------4------------4--|
 D|--------------------------|--------------------------|
 A|--------------------------|--------------------------|
 E|--------------------------|--------------------------|
 B|--------------------------|--------------------------|
       *  *  *  *  *      *       *  *  *  *  *      *
 E|-------3--------3---------|--------------------------|--------------------2----------|
 B|----3--------3------------|----3--5-----3--5---------|----3p2-------2-3-----5-3-2----|
 G|----------4------------4--|----------4------------4--|--------4-2-4-----4---------4--|
 D|--------------------------|--------------------------|-------------------------------|
 A|--------------------------|--------------------------|-------------------------------|
 E|--------------------------|--------------------------|-------------------------------|
 B|--------------------------|--------------------------|-------------------------------|
       *  *  *  *  *      *       *  *  *  *  *      *

III. Guitars 1 and 2 (w/ dist)

 B|----------------------------|-----------------------------|
F#|----------------------------|-----------------------------|
 D|----------------------------|-----------------------------|
 A|----------------------------|-----------------------------|
 E|----------------------------|-----------------------------|\
 B|-0--0-0-0--0-----0-0-0-0--0-|-0--0-0-0--0-----0-0-0-0--0--| \
    *  * * *  *     * * * *  *   *  * * *  *     * * * *  *     x2
 B|----------------------------|------------------------------|/
F#|----------------------------|------------------------------|
 D|----------------------------|------------------------------|
 A|----------------------------|------------------------------|
 E|----------------------------|------------------------------|
 B|-0--0-0-0--0-----0-0-0-0--0-|-0--0-0-0--0--0-0-0-0-0-0-0-0-|
    *  * * *  *     * * * *  *   *  * * *  *  * * * * * * * *

     Guitar 3 (w/ dist)

 E|-------2--------2---------|-------3--------3---------|-------------------------|
 B|----3--------3------------|----3--------3------------|----3--5----3--5---------|
 G|-4--------4------------4--|----------4------------4--|---------4------------4--|
 D|--------------------------|--------------------------|-------------------------|
 A|--------------------------|--------------------------|-------------------------|
 E|--------------------------|--------------------------|-------------------------|
 B|--------------------------|--------------------------|-------------------------|
    *  *  *  *  *  *      *       *  *  *  *  *      *       *  * *  *  *      *
 E|--------------------------|-------2--------2---------|-------3--------3---------|
 B|----3--2-----2--3---------|----3--------3------------|----3--------3------------|
 G|----------4------------4--|----------4------------4--|----------4------------4--|
 D|--------------------------|--------------------------|--------------------------|
 A|--------------------------|--------------------------|--------------------------|
 E|--------------------------|--------------------------|--------------------------|
 B|--------------------------|--------------------------|--------------------------|
       *  *  *  *  *      *       *  *  *  *  *      *       *  *  *  *  *      *
 E|--------------------------|-----------------------------2-5-|-5b~~~~~~~~|~~~~~~~~~|
 B|----3--5-----3--5---------|-3p2-------2-----3---5---3-5-----|-----------|---------|
 G|----------4------------4--|-----4p2-4---2-4---4---4---------|-----------|---------|
 D|--------------------------|---------------------------------|-----------|---------|
 A|--------------------------|---------------------------------|-----------|---------|
 E|--------------------------|---------------------------------|-----------|---------|
 B|--------------------------|---------------------------------|-----------|---------|
       *  *  *  *  *      *

     Guitar 4 (w/ dist)

E|-------5--------5----------|-------7--------7---------|--------------------------|
B|----7--------7-------------|----8--------8------------|-------8-----7--8---------|
G|----------7------------7---|----------7------------7--|----7-----7------------7--|
D|---------------------------|--------------------------|--------------------------|
A|---------------------------|--------------------------|--------------------------|
E|---------------------------|--------------------------|--------------------------|
B|---------------------------|--------------------------|--------------------------|
      *  *  *  *  *      *        *  *  *  *  *      *       *  *  *  *  *      *
E|--------------------------|-------5--------5---------|-------7--------7---------|
B|----5--7-----5--7---------|----7--------7------------|----8--------8------------|
G|----------7------------7--|----------7------------7--|----------7------------7--|
D|--------------------------|--------------------------|--------------------------|
A|--------------------------|--------------------------|--------------------------|
E|--------------------------|--------------------------|--------------------------|
B|--------------------------|--------------------------|--------------------------|
      *  *  *  *  *      *       *  *  *  *  *      *       *  *  *  *  *      *
E|------------------------|-------------------------------------------17-21-|-21b------|-21-----|
B|-------8-----7--8-------|-19-17----------17-------19----20-17-19-20-------|----------|--------|
G|----7-----7-------------|-------19-18-19----18-19----19-------------------|----------|--------|
D|------------------------|-------------------------------------------------|----------|--------|
A|------------------------|-------------------------------------------------|----------|--------|
E|------------------------|-------------------------------------------------|----------|--------|
B|------------------------|-------------------------------------------------|----------|--------|
      *  *  *  *  *

And then piano fill.

-----------------------------------------------------------------------------------------
|                                   CHORUS 3 (03:03-03:38)                              |
-----------------------------------------------------------------------------------------

 B|--------------------|----------------------|
F#|--------------------|----------------------|
 D|--------------------|----------------------|
 A|--------------------|----------------------|
 E|--------------------|----------2-----------|
 B|-3--0---0-----3--0--|---0---0-----3--5-p3--|

                                                                 ------------|
 B|-------------------------|-----------------|------------------------|     |
F#|-------------------------|----5--5----5----|------------------------|     |
 D|-5--5--5----------5---5--|-5--4--4----4----|------------------------|     |
 A|-5--5--5----------5---5--|-5--2--2----2----|------------------------|     |
 E|-3--3--3----------3---3--|-3--0--0----0----|-5--2--2------2------2--|     |
 B|-------------------------|-----------------|-3--0--0---0--0------0--|     |
                                                          *         *        |
 B|---------------------|--------------------------|----------------|        |
F#|---------------------|--------------------------|----5--5---5----|        |
 D|---------------------|-5--5---5----------5---5--|-5--4--4---4----|        |
 A|---------------------|-5--5---5----------5---5--|-5--2--2---2----|        | x2
 E|-2--2---2--5--5---5--|-3--3---3----------3---3--|-3--0--0---0----|        |
 B|-0--0---0--3--3---3--|--------------------------|----------------|        |
    *  *   *  *  *   *                                                       |
 B|--------------------|----------------------|                              |
F#|--------------------|----------------------|                              |
 D|--------------------|----------------------|                              |
 A|--------------------|----------------------|                              |
 E|--------------------|----------2-----------|                              |
 B|-3--0---0-----3--0--|---0---0-----3--5-p3--|                              |
                                          -----------------------------------|

 B|--------------------|----------------------|
F#|--------------------|----------------------|
 D|--------------------|----------------------| x2
 A|--------------------|----------------------|
 E|--------------------|----------2-----------|
 B|-3--0---0-----3--0--|---0---0-----3--5-p3--|

 B|--------------------|----------------------|
F#|--------------------|----------------------|
 D|--------------------|----------------------|
 A|--------------------|----------------------|
 E|--------------------|----------------------|
 B|-3--0---0-----3--0--|---0------------------|



-----------------------------------------------------------------------------------------
|                                     OUTRO (03:38-03:56)                               |
-----------------------------------------------------------------------------------------

I. Guitar 1 (acoustic guitar)

 B|-----------------|-----------------|-----------------|-----------------|
F#|-------------0---|-------------0---|-----------------|-----------------|
 D|---------5-------|---------5-------|---------2---0---|-----------------|
 A|-----2-----------|-----2-----------|-----2-----------|-----2---4--h5---|
 E|-3---------------|-0---------------|-----------------|-----------------|
 B|-----------------|-----------------|-0---------------|-0---------------|

II. Guitar 1 (acoustic guitar)

 B|-----------------|-----------------|-----------------|-----------------|
F#|-------------0---|-------------0---|-----------------|-----------------|
 D|---------5-------|---------5-------|---------2---0---|-----------------|
 A|-----2-----------|-----2-----------|-----2-----------|-----2---4--h5---|
 E|-3---------------|-0---------------|-----------------|-----------------|
 B|-----------------|-----------------|-0---------------|-0---------------|

    Guitar 2 (acoustic guitar) 

3 empty bars, then:

 B|-7-h8-p7-----7----7----|
F#|-7-h8-p7-----7----7----|
 D|-----------------------|
 A|-----------------------|
 E|-----------------------|
 B|-----------------------|

III. Guitar 1 (acoustic guitar)

 B|-----------------|-----------------|-----------------|-----------------|
F#|-------------0---|-------------0---|-----------------|-----------------|
 D|---------5-------|---------5-------|---------2---0---|-----------------| till fade
 A|-----2-----------|-----2-----------|-----2-----------|-----2---4--h5---|
 E|-3---------------|-0---------------|-----------------|-----------------|
 B|-----------------|-----------------|-0---------------|-0---------------|


            
            
Suggest correction
Creating personal tab
Creating personal tab
You can edit any tab online and save it as your Personal.

You can edit, replace or remove any tab part or add personal notes – all changes will be seen only by you.

Personal tabs can be accessed anytime from any device, even offline.
Learn more »
Give kudos to tab author, rate the tab!
1 2 3 4 5
comments
print report bad tab
guest
You may want to rate the tab now too:
select rating
Wanna post a correction for this tab? Suggest correction