Oops, an error
Loading. Please wait.

Remember Everything tab

version 3
version 3

Whole song

Interactive

3,989 views 36 this week
no commentswrite comment
1 2 3 4 5
x 6
add to favorites
×
Save as Personal and add changes to this tab that will be seen only by you. Learn more ›
×
You can save this tab as Personal to edit and correct it or add notes. All changes will be seen only by you. Learn more »
launch autoscroll
font size
0
reset
how to read this tab
guitar tuner
edit
Autoscroll
slow
fast
+/-
esc
set tempo
stop
About this tab version
Ver1 has very good ratings, but it's incomplete. There is no solo, and some guitar parts are missing too. Also it's not as detailed as mine. Was this info helpful? Yes No
-----------------------------------------------------------------------------------------
|                     FIVE FINGER DEATH PUNCH - REMEMBER EVERYTHING                     |
|                          Album: American Capitalist (2011)                            |
-----------------------------------------------------------------------------------------
           If you have questions or corrections feel free to send me a message:
                        http://profile.ultimate-guitar.com/godspeedy/
                           https://www.facebook.com/Godspeedy14
                           
        Also, check out my Youtube channel: http://www.youtube.com/user/Godspeedy14

                 Tuning: 6 string AEADF#B (Rhythm), 7 string AEADGBE (Solo)

**************************************GUITAR NOTATIONS***********************************
*                                                                                       *
*                                | *   palm mute         |                              *
*                                | s   slide             |                              *
*                                | h   hammer-on         |                              *
*                                | p   pull-off          |                              *
*                                | ~   vibrato           |                              *
*                                | x   Mute note         |                              *
*                                | b   bend              |                              *
*                                | r   release           |                              *
*                                | br  bend release      |                              *
*                                | ..  let ring          |                              *
*                                | \\  whammy bar down   |                              *
*                                                                                       *
*****************************************************************************************

-----------------------------------------------------------------------------------------
|                                    INTRO (00:00-00:26)                                |
-----------------------------------------------------------------------------------------

Guitar 1 (w/ clean and reverb)

 B|-------------|
F#|-------------|
 D|-------------|
 A|-------------|
 E|-------------|
 A|-------4-----|
    volume swell

   ...................................................................
 B|---------------------------------|---------------------------------|
F#|---------------------------------|---------------------------------|
 D|-------------6---4---------------|-------------6---4---------------|
 A|---------7-----------6-----------|---------7-----------6---7---4---|
 E|-----9-----------------------9---|-----9---------------------------|
 A|-0-----------------------0-------|-0-------------------------------|
   ...................................................................
 B|---------------------------------|---------------------------------|
F#|---------------------------------|---------------------------------|
 D|---------------------------------|---------------------------------|
 A|---------4---7---6-----------4---|---------4---7---6---------------|
 E|-----4---------------7-----------|-----4---------------7-------7---|
 A|-4-----------------------4-------|-4-----------------------7-------|
   ...................................................................
 B|---------------------------------|---------------------------------|
F#|---------------------------------|---------------------------------|
 D|-------------6---4---------------|-------------6---4---------------|
 A|---------7-----------6-----------|---------7-----------6---7---4---|
 E|-----9-----------------------9---|-----9---------------------------|
 A|-0-----------------------0-------|-0-------------------------------|
   .................................
 B|---------------------------------|-0------|
F#|---------------------------------|-0------|
 D|---------------------------------|-4------|
 A|---------4---7---6-----------4---|-4------|
 E|-----4---------------7-----------|--------|
 A|-4-----------------------4-------|--------|

-----------------------------------------------------------------------------------------
|                                   VERSE (00:26-01:01)                                 |
-----------------------------------------------------------------------------------------

I. Guitar 1 (w/ clean and reverb)

   ...................................................................
 B|---------------------------------|---------------------------------|
F#|---------------------------------|---------------------------------|
 D|-------------6---4---------------|-------------6---4---------------|
 A|---------7-----------6-----------|---------7-----------6---7---4---|
 E|-----9-----------------------9---|-----9---------------------------|
 A|-0-----------------------0-------|-0-------------------------------|
   ...................................................................
 B|---------------------------------|---------------------------------|
F#|---------------------------------|---------------------------------|
 D|---------------------------------|---------------------------------|
 A|---------4---7---6-----------4---|---------4---7---6---------------|
 E|-----4---------------7-----------|-----4---------------7-------7---|
 A|-4-----------------------4-------|-4-----------------------7-------|
   ...................................................................
 B|---------------------------------|---------------------------------|
F#|---------------------------------|---------------------------------|
 D|-------------6---4---------------|-------------6---4---------------|
 A|---------7-----------6-----------|---------7-----------6---7---4---|
 E|-----9-----------------------9---|-----9---------------------------|
 A|-0-----------------------0-------|-0-------------------------------|
   ...................................................................
 B|---------------------------------|---------------------------------|
F#|---------------------------------|-------------2---0---------------|
 D|---------------------------------|---------2-----------1-------2---|
 A|---------4---7---6-----------4---|-----2---------------------------|
 E|-----4---------------7-----------|-0-----------------------0-------|
 A|-4-----------------------4-------|---------------------------------|

II. Guitar 1 (w/ clean and reverb)
   .............................................................
 B|------------------------------|------------------------------|
F#|---------3-------2------------|------------------------------|
 D|-------------------------4----|------------------------------|
 A|-----4-------4-------4--------|---------7-------6-------4----|
 E|-2----------------------------|-----4-------4-------4--------|
 A|------------------------------|-4----------------------------|
   ..........................................................
 B|------------------------|---------------------------------|
F#|------------------------|---------5---------------9-------|
 D|------------------------|-------------6---------------9---|
 A|------4-------2----4----|-----6---------------9-----------|
 E|----------5-------------|-4---------------7---------------|
 A|-0----------------------|---------------------------------|

    Guitar 2 (w/ clean and reverb)
   .............................................................
 B|---------2--------------------|------------------------------|
F#|-3---------------5-------3----|---------2--------------------|
 D|-----4-------4-------4--------|-----2-----------4-------2----|
 A|------------------------------|-4-----------4-------4--------|
 E|------------------------------|------------------------------|
 A|------------------------------|------------------------------|
   .............................................................
 B|---------------------------|---------------------------------|
F#|------2--------------------|---------5---------------9-------|
 D|--------------4-------2----|-------------6---------------9---|
 A|-4--------4-------4--------|-----6---------------9-----------|
 E|---------------------------|-4---------------7---------------|
 A|---------------------------|---------------------------------|

-----------------------------------------------------------------------------------------
|                                   CHORUS (01:01-01:25)                                |
-----------------------------------------------------------------------------------------

Guitars 1 and 2 (w/ dist)

 B|-----------------------|-----------------|---------------------|-------------------|
F#|-----------------------|-----------------|---------------------|-------------------|
 D|-----------9---9-------|-----------------|---------9---9---9---|-------------------|
 A|-2---------7---6-------|-----------------|-4-------6---7---7---|-------------------|
 E|-0-----0-----------7s--|-2---------2--2--|-2---------------7---|-0-----2-----2--2--|
 A|-----------------------|-2---------2--2--|---------------------|-0-----2-----2--2--|
          *                           *  *                                      *  *
 B|---------------------|---------------------|-----------------|-------------|
F#|---------------------|---------------------|-3---------------|-------------|
 D|---------9---9-------|---------------------|-4---------------|-------------|
 A|---------7---6-------|-6-------6-----------|-4---------4-----|-7-----------|
 E|-4---------------9---|-4-------4---5---0---|-2---------2--4--|-5-----2-----|
 A|-4-------------------|---------------------|-----------------|-------2-----|
                                                          *  *

-----------------------------------------------------------------------------------------
|                                   VERSE 2 (01:25-02:06)                               |
-----------------------------------------------------------------------------------------

I. Guitars 1 and 2 (w/ dist)

 B|--------|-----------|
F#|--------|-----------|
 D|--------|-----------|
 A|--------|-----------|
 E|-4------|-----------|
 A|-4------|------16s--|
                slide out downwards

II. Guitars 1 and 2 (w/ dist)

 B|--------------------------------|-----------------------|------------------------------|
F#|--------------------------------|-----------------------|------------------------------|
 D|--------------------------------|-----------------------|------------------------------|
 A|--------------------------------|-----------------------|------------------------------|
 E|--------------------------------|-----------------------|------------------------------|
 A|-0---0-------0------------0--0--|-----------2---2---2---|-4---4-------4------------2---|
    *   *       *            *  *              *   *   *     *   *       *            *
 B|-----------------|--------------------------------|-----------------------|
F#|-----------------|--------------------------------|-----------------------|
 D|-----------------|--------------------------------|-----------------------|
 A|-----------------|--------------------------------|-----------------------|
 E|-----------7-----|--------------------------------|-----------------------|
 A|-----------7-----|-0---0-------0------------0--0--|-----------2---2---2---|
                      *   *       *            *  *              *   *   *
 B|------------------------------|----------------------|--------|
F#|------------------------------|----------------------|--------|
 D|------------------------------|----------------------|--------|
 A|------------------------------|-2--------------------|-4------|
 E|------------------------------|-0----------0--0--0---|-2------|
 A|-4---4-------4------------2---|----------------------|--------|
    *   *       *            *
 B|-----------------|---------------------|-------------|
F#|-----------------|---------------------|-------------|
 D|-----------------|---------------------|-------------|
 A|-----------------|---------------------|-6-----9-----|
 E|-4---------4-----|-0-------0---0---0---|-4-----7-----|
 A|-4---------4--0--|-0-------0---0---0---|-------------|
                              *   *   *

    Guitar 3 (w/ clean and reverb)

   ...................................................................
 B|---------------------------------|---------------------------------|
F#|---------------------------------|---------------------------------|
 D|-------------6---4---------------|-------------6---4---------------|
 A|---------7-----------6-----------|---------7-----------6---7---4---|
 E|-----9-----------------------9---|-----9---------------------------|
 A|-0-----------------------0-------|-0-------------------------------|
   ...................................................................
 B|---------------------------------|---------------------------------|
F#|---------------------------------|---------------------------------|
 D|---------------------------------|---------------------------------|
 A|---------4---7---6-----------4---|---------4---7---6---------------|
 E|-----4---------------7-----------|-----4---------------7-------7---|
 A|-4-----------------------4-------|-4-----------------------7-------|
   ...................................................................
 B|---------------------------------|---------------------------------|
F#|---------------------------------|---------------------------------|
 D|-------------6---4---------------|-------------6---4---------------|
 A|---------7-----------6-----------|---------7-----------6---7---4---|
 E|-----9-----------------------9---|-----9---------------------------|
 A|-0-----------------------0-------|-0-------------------------------|
   ...................................................................
 B|---------------------------------|---------------------------------|
F#|---------------------------------|-------------2---0---------------|
 D|---------------------------------|---------2-----------1-------2---|
 A|---------4---7---6-----------4---|-----2---------------------------|
 E|-----4---------------7-----------|-0-----------------------0-------|
 A|-4-----------------------4-------|---------------------------------|
   .............................................................
 B|------------------------------|------------------------------|
F#|---------3-------2------------|------------------------------|
 D|-------------------------4----|------------------------------|
 A|-----4-------4-------4--------|---------7-------6-------4----|
 E|-2----------------------------|-----4-------4-------4--------|
 A|------------------------------|-4----------------------------|
   ..........................................................
 B|------------------------|---------------------------------|
F#|------------------------|---------5---------------9-------|
 D|------------------------|-------------6---------------9---|
 A|------4-------2----4----|-----6---------------9-----------|
 E|----------5-------------|-4---------------7---------------|
 A|-0----------------------|---------------------------------|

    Guitar 4 (w/ clean and reverb) - 8 bars empty, then:

   .............................................................
 B|---------2--------------------|------------------------------|
F#|-3---------------5-------3----|---------2--------------------|
 D|-----4-------4-------4--------|-----2-----------4-------2----|
 A|------------------------------|-4-----------4-------4--------|
 E|------------------------------|------------------------------|
 A|------------------------------|------------------------------|
   .............................................................
 B|---------------------------|---------------------------------|
F#|------2--------------------|---------5---------------9-------|
 D|--------------4-------2----|-------------6---------------9---|
 A|-4--------4-------4--------|-----6---------------9-----------|
 E|---------------------------|-4---------------7---------------|
 A|---------------------------|---------------------------------|
                                     
-----------------------------------------------------------------------------------------
|                                   CHORUS 2 (02:06-02:30)                              |
-----------------------------------------------------------------------------------------
                                        same as CHORUS
-----------------------------------------------------------------------------------------
|                                    BRIDGE (02:30-03:00)                               |
-----------------------------------------------------------------------------------------

I. Guitars 1 and 2 (w/ dist)

 B|-----------------------------|---------------------------------|
F#|-----------------------------|---------------------------------|
 D|-9---------------------------|---------------------------------|
 A|-7---------------------------|---------------------------------|
 E|-0----0---0---0---0---0---0--|-4---4---4---4---4---4---4---4---|
 A|-0----0---0---0---0---0---0--|-4---4---4---4---4---4---4---4---|
         *   *   *   *   *   *    *   *   *   *   *   *   *   *
 B|--------------------------------|---------------------------------|
F#|--------------------------------|---------------------------------|
 D|--------------------------------|---------------------------------|
 A|--------------------------------|-2---2---2---2---4---4---4---4---|
 E|-0---0---0---0---0---0---0---0--|-0---0---0---0---2---2---2---2---|
 A|-0---0---0---0---0---0---0---0--|---------------------------------|
    *   *   *   *   *   *   *   *    *   *   *   *   *   *   *   *
 B|--------------------------------|---------------------------------|
F#|--------------------------------|---------------------------------|
 D|--------------------------------|---------------------------------|
 A|--------------------------------|---------------------------------|
 E|-0---0---0---0---0---0---0---0--|-4---4---4---4---4---4---4---4---|
 A|-0---0---0---0---0---0---0---0--|-4---4---4---4---4---4---4---4---|
    *   *   *   *   *   *   *   *    *   *   *   *   *   *   *   *
 B|--------------------------------|------------------------------|
F#|--------------------------------|------------------------------|
 D|--------------------------------|------------------------------|
 A|--------------------------------|------------------------------|
 E|-2---2---2---2---2---2---2---2--|-2---2---2---2---2---2---2----|
 A|-2---2---2---2---2---2---2---2--|-2---2---2---2---2---2---2----|
    *   *   *   *   *   *   *   *    *   *

   Guitar 3 (w/ clean and reverb)

        .......................................................................................
 B|------------------------------|------------------------------|------------------------------|
F#|---------10------10--9----10--|---------10------10--9----10--|---------10------10--9----10--|
 D|-----7-------7----------------|-----6-------6----------------|-----7-------7----------------|
 A|------------------------------|------------------------------|------------------------------|
 E|------------------------------|------------------------------|------------------------------|
 A|------------------------------|------------------------------|------------------------------|
   ...........................................................
 B|------------------------------|----------------------------|
F#|---------10------10--9----10--|-------10------10--9----10--|
 D|-----6-------6----------------|---7-------7----------------|
 A|------------------------------|----------------------------|
 E|------------------------------|----------------------------|
 A|------------------------------|----------------------------|
   .................................................................. 
 B|----------------------------|-------|-----------------------------|
F#|-------10------10--9--------|-------|----9-------10--10--9--------|
 D|---6-------6----------------|-------|--------9---------------9----|
 A|------------------------9---|-------|-----------------------------|
 E|------------------------7---|-------|-----------------------------|
 A|----------------------------|-------|-----------------------------|

II. Guitar 1 (w/ clean and reverb)

   ...................................................................
 B|---------------------------------|---------------------------------|
F#|---------------------------------|---------------------------------|
 D|-------------6---4---------------|-------------6---4---------------|
 A|---------7-----------6-----------|---------7-----------6---7---4---|
 E|-----9-----------------------9---|-----9---------------------------|
 A|-0-----------------------0-------|-0-------------------------------|

-----------------------------------------------------------------------------------------
|                                     SOLO (03:00-03:30)                                |
-----------------------------------------------------------------------------------------

Guitar 1 (w/ clean and reverb) - Rhythm for SOLO

   ...................................................................
 B|---------------------------------|---------------------------------|
F#|---------------------------------|---------------------------------|
 D|---------------------------------|---------------------------------|
 A|---------4---7---6-----------4---|---------4---7---6---------------|
 E|-----4---------------7-----------|-----4---------------7-------7---|
 A|-4-----------------------4-------|-4-----------------------7-------|
   ...................................................................
 B|---------------------------------|---------------------------------|
F#|---------------------------------|---------------------------------|
 D|-------------6---4---------------|-------------6---4---------------|
 A|---------7-----------6-----------|---------7-----------6---7---4---|
 E|-----9-----------------------9---|-----9---------------------------|
 A|-0-----------------------0-------|-0-------------------------------|
   ...................................................................
 B|---------------------------------|---------------------------------|
F#|---------------------------------|-------------2---0---------------|
 D|---------------------------------|---------2-----------1-------2---|
 A|---------4---7---6-----------4---|-----2---------------------------|
 E|-----4---------------7-----------|-0-----------------------0-------|
 A|-4-----------------------4-------|---------------------------------|
   .............................................................
 B|------------------------------|------------------------------|
F#|---------3-------2------------|------------------------------|
 D|-------------------------4----|------------------------------|
 A|-----4-------4-------4--------|---------7-------6-------4----|
 E|-2----------------------------|-----4-------4-------4--------|
 A|------------------------------|-4----------------------------|
   ..........................................................
 B|------------------------|---------------------------------|
F#|------------------------|---------5---------------9-------|
 D|------------------------|-------------6---------------9---|
 A|------4-------2----4----|-----6---------------9-----------|
 E|----------5-------------|-4---------------7---------------|
 A|-0----------------------|---------------------------------|

Guitar 2 (w/ clean and reverb) - Rhythm for SOLO - 6 bars empty, then:

   .............................................................
 B|---------2--------------------|------------------------------|
F#|-3---------------5-------3----|---------2--------------------|
 D|-----4-------4-------4--------|-----2-----------4-------2----|
 A|------------------------------|-4-----------4-------4--------|
 E|------------------------------|------------------------------|
 A|------------------------------|------------------------------|
   .............................................................
 B|---------------------------|---------------------------------|
F#|------2--------------------|---------5---------------9-------|
 D|--------------4-------2----|-------------6---------------9---|
 A|-4--------4-------4--------|-----6---------------9-----------|
 E|---------------------------|-4---------------7---------------|
 A|---------------------------|---------------------------------|

Guitar 3 (w/ dist and delay) - SOLO

       ППП
E|-------11~~~~~~~~---11|----------------7-------|-----------------------------|
B|------x----------12---|-12----s--------10b-----|-r-------------5-----7b------|
G|-----x----------------|----------9-h11---------|-----------s6-----6----------|
D|----------------------|------------------------|-----------------------------|
A|----------------------|------------------------|-----------------------------|
E|----------------------|------------------------|-----------------------------|
A|----------------------|------------------------|-----------------------------|
                                        ППП
E|-----------------------------|-----------------------------------|
B|------\\\\\\-----5-----s7--b-|-----------------------------------|
G|-------------s6-----6--------|----------9-p8----8------9---11-s8-|
D|-----------------------------|---------x------------11-----------|
A|-----------------------------|--------x--------------------------|
E|-----------------------------|-----------------------------------|
A|-----------------------------|-----------------------------------|

E|-------------------------------------------|-9--12-9--------9--------------------------------|
B|------------------------------9-----9\\\\--|----------9--12-------9--------9-----------------|
G|------------------------8--9-----11--------|-------------------11----11-9-----11----9--------|
D|----9-------------9--11--------------------|-------------------------------------9-----11----|
A|-------11---9--11--------------------------|----------------------------------------------9--|
E|-------------------------------------------|-------------------------------------------------|
A|-------------------------------------------|-------------------------------------------------|
                                                                 *     *  *        *        *
E|------------------------9--9------12b--|----11p9-----9-----11----11br--------9--|
B|------------------------------9--------|----------9-----9-----9--------12-------|
G|-------9-----11----11b-----------------|----------------------------------11----|
D|----9-----9-----9----------------------|----------------------------------------|
A|-11------------------------------------|----------------------------------------|
E|---------------------------------------|----------------------------------------|
A|---------------------------------------|----------------------------------------|

(this part is tricky on rhythm, so this is just the notes)
E|-16-14-------------17-16-14----------19-17----16-------------------------------------------------|
B|-------17p16-14-14----------17p16-14-------19----17-19-16-17p16----17p16---------19b-19p17-------|
G|----------------------------------------------------------------18-------18p16-18----------18-16-|
D|-------------------------------------------------------------------------------------------------|
A|-------------------------------------------------------------------------------------------------|
E|-------------------------------------------------------------------------------------------------|
A|-------------------------------------------------------------------------------------------------|

E|-17b-------~~~~~|~~~~~~~~~~~|
B|----------------|-----------|
G|----------------|-----------|
D|----------------|-----------|
A|----------------|-----------|
E|----------------|-----------|
A|----------------|-----------|

-----------------------------------------------------------------------------------------
|                                   CHORUS 3 (03:30-04:17)                              |
-----------------------------------------------------------------------------------------
                                     repeat CHORUS twice
-----------------------------------------------------------------------------------------
|                                     OUTRO (04:17-04:38)                               |
-----------------------------------------------------------------------------------------

Guitars 1 and 2 (w/ dist)

 B|--------|---------------|-------|-------|--------|
F#|--------|---------------|-------|-------|--------|
 D|-9------|-----------9---|-------|-------|--------|
 A|-7------|-----------7---|-------|-------|--------|
 E|-0------|-----------0---|-------|-------|-4------|
 A|-0------|-----------0---|-------|-------|-4------|


            
            
Suggest correction
Creating personal tab
Creating personal tab
You can edit any tab online and save it as your Personal.

You can edit, replace or remove any tab part or add personal notes – all changes will be seen only by you.

Personal tabs can be accessed anytime from any device, even offline.
Learn more »
comments
print report bad tab
guest
You may want to rate the tab now too:
select rating
Wanna post a correction for this tab? Suggest correction