Oops, an error
Loading. Please wait.

The Devils Own bass

version 1
version 1

Whole song

Interactive

5,062 views 1 this week
no commentswrite comment
1 2 3 4 5
1 last vote to show rating
add to favorites
×
Save as Personal and add changes to this tab that will be seen only by you. Learn more ›
×
You can save this tab as Personal to edit and correct it or add notes. All changes will be seen only by you. Learn more »
launch autoscroll
font size
0
reset
guitar tuner
edit
Autoscroll
slow
fast
+/-
esc
set tempo
stop
chorus (2x)
F|-------------------------------------------------------------------|
C|-------------------------------------------------------------------|
G|-------------------------------------------------------------------|
C|--0(16x)--4(16x)--7(16x)--4(8x)--0(8x)-----------------------------|

verse (4x)
F|-------------------------------------------------------------------|
C|-------------------------------------------------------------------|
G|-------------------------------------------------------------------|
C|000-00-0-000--000-00-0-000--000-00-0-000--7777666688888888---------|

pre chorus (4x)
F|-------------------------------------------------------------------|
C|-------------------------------------------------------------------|
G|-------------------------------------------------------------------|
C|-5-00-5-00-5-00-76-7-00-7-00-7-00-000------------------------------|

chorus (2x)
F|-------------------------------------------------------------------|
C|-------------------------------------------------------------------|
G|-------------------------------------------------------------------|
C|--0(16x)--4(16x)--7(16x)--4(8x)--0(8x)-----------------------------|

verse (4x)
F|-------------------------------------------------------------------|
C|-------------------------------------------------------------------|
G|-------------------------------------------------------------------|
C|000-00-0-000--000-00-0-000--000-00-0-000--7777666688888888---------|

pre chorus (4x)
F|-------------------------------------------------------------------|
C|-------------------------------------------------------------------|
G|-------------------------------------------------------------------|
C|-5-00-5-00-5-00-76-7-00-7-00-7-00-000------------------------------|

you play the pre bridge around 48 times. not sure if thats the right amount but you 
be able to estimate. plus i hear teh lead guitar playing something but im pretty sure the 
doesn't play that

pre bridge
F|-------------------------------------------------------------------|
C|-------------------------------------------------------------------|
G|-------------------------------------------------------------------|
C|0000---------------------------------------------------------------|

the bridge im not sure if its right. i made 2 diffrent versions i dont no which one is 
if neither are could some1 please say thanks

version 1
bridge (2x)
F|----------------------------------------------------------------|
C|---------------------8------------------------------------------|
G|----------------7h87--------------------------------------------|
C|-(-/----)-0000-00-----------------------------------------------|

bridge 2
F|----------------------------------------------------------------|
C|----------------------------------------------------------------|
G|----------8------------7----------------------------------------|
C|--0000-00------0000-00------------------------------------------|

version 2
bridge (2x)
F|----------------------------------------------------------------|
C|----------------------------------------------------------------|
G|----------------------8-----------------------------------------|
C|-(-/----)-0000-00-7h87------------------------------------------|

bridge 2
F|----------------------------------------------------------------|
C|----------------------------------------------------------------|
G|----------------------------------------------------------------|
C|--0000-00-8----0000-00-7----------------------------------------|


verse (1x)
F|------------------------------------------|
C|------------------------------------------|
G|------------------------------------------|
C|000-00-0-000--000-00-0-000--000-00-0-000--|


pre chorus (2x)
F|-------------------------------------------------------------------|
C|-------------------------------------------------------------------|
G|-------------------------------------------------------------------|
C|-5-00-5-00-5-00-76-7-00-7-00-7-00-000------------------------------|


chorus (2x)
F|-------------------------------------------------------------------|
C|-------------------------------------------------------------------|
G|-------------------------------------------------------------------|
C|--0(16x)--4(16x)--7(16x)--4(8x)--0(8x)-----------------------------|

F|-------------------------------------------------------------------|
C|-------------------------------------------------------------------|
G|-------------------------------------------------------------------|
C|0~-----------------------------------------------------------------|

            
            
Suggest correction
Creating personal tab
Creating personal tab
You can edit any tab online and save it as your Personal.

You can edit, replace or remove any tab part or add personal notes – all changes will be seen only by you.

Personal tabs can be accessed anytime from any device, even offline.
Learn more »
Give kudos to tab author, rate the tab!
1 2 3 4 5
comments
print report bad tab
guest
You may want to rate the tab now too:
select rating
Wanna post a correction for this tab? Suggest correction