Oops, an error
Loading. Please wait.

Walk Away intro tab

version 1
version 1

Intro

Whole song

Interactive

9,441 views 1 this week
4 commentsread comments
1 2 3 4 5
x 4
add to favorites
×
Save as Personal and add changes to this tab that will be seen only by you. Learn more ›
×
You can save this tab as Personal to edit and correct it or add notes. All changes will be seen only by you. Learn more »
launch autoscroll
font size
0
reset
how to read this tab
guitar tuner
edit
Autoscroll
slow
fast
+/-
esc
set tempo
stop
Difficulty
intermediate
This is the intro for both guitars theres 2 ways and il put them up
        ph go in there at 2 n 3 n 4\strumming pattern not shown

-------------------------------\----------------------------------|
--------------------------------\---------------------------------|
---------------------------------\------4-----2-------------------|
-----4--2-3------2--0-1-----------\-----4--4--2--2----------------|
------------4-----------2----------\----2--4--0--2----------------|
------------------------------------\------2-----0----------------|
the other way ph the same spot\strumming pattern not shown
-------------------------------\----------------------------------|
--------------------------------\---------------------------------|
---------------------------------\--------------------------------|
----------------------------------\-------9--4--7--2--------------|
--9--7-8----7--5-6-----------------\------9--4--7--2--------------|
---------9---------7----------------\-----7--2--5--0--------------|

            
            
Suggest correction
Creating personal tab
Creating personal tab
You can edit any tab online and save it as your Personal.

You can edit, replace or remove any tab part or add personal notes – all changes will be seen only by you.

Personal tabs can be accessed anytime from any device, even offline.
Learn more »
comments
print report bad tab
4 comments total. Showing first comments.
0 reply
mcr_02_fan 37 Jan 12, 2010 10:07 AM

its not right.....this is what i think it is...

Guitar one
E--------------------------------------------------------|
B--------------------------------------------------------|
G--------------------------------------------------------|
D----\16--14--16--------\14--14-14-14-12-11--------------|
A-----------------16-------------------------14----------|
E--------------------------------------------------------|

E--------------------------------------------------------|
B----\19---17-19--------\17--17-17-17-15-14--------------|
G-----------------18------------------------16-----------|
D--------------------------------------------------------|
A--------------------------------------------------------|
E--------------------------------------------------------|

0 reply
mcr_02_fan 37 Jan 12, 2010 10:08 AM

the one below it is guitar 2 ..playing at the same time

0 reply
mcr_02_fan 37 Jan 12, 2010 10:09 AM

its not right.....this is what i think it is...

Guitar one
E--------------------------------------------------------|
B--------------------------------------------------------|
G--------------------------------------------------------|
D----\16--14--16--------\14--14-14-14-12-11--------------|
A-----------------16-------------------------14----------|
E--------------------------------------------------------|

E--------------------------------------------------------|
B----\19---17-19--------\17--17-17-17-15-14--------------|
G-----------------18------------------------16-----------|
D--------------------------------------------------------|
A--------------------------------------------------------|
E--------------------------------------------------------|

guest
Wanna post a correction for this tab? Suggest correction