Oops, an error
Loading. Please wait.
We have an official Wash It All Away tab made by UG professional guitarists. Check out the tab »
×

Wash It All Away tab

version 2
version 2

Whole song

  • This is the first time i write a tab with two guit... Show more

Interactive

790 views 66 this week
no commentswrite comment
1 2 3 4 5
3 more votes to show rating
add to favorites
×
Save as Personal and add changes to this tab that will be seen only by you. Learn more ›
×
You can save this tab as Personal to edit and correct it or add notes. All changes will be seen only by you. Learn more »
launch autoscroll
font size
0
reset
how to read this tab
guitar tuner
backing track
0:00
0:00
edit
Autoscroll
slow
fast
+/-
esc
set tempo
stop
About this tab version
This is the first time i write a tab with two guitars so it might not be 100% correct. Was this info helpful? Yes No
Artist : Five Finger Death Punch
Song : Wash It All Away
Album : Got Your Six
Release Date : 2015
Produced by : Kevin Churko, Five Finger Death Punch

(Guitar 1 - Clean)
B |------------------------|-----------------------|
F#|------------------------|-----------------------|
D |----------0-----------0-|-----------------------|  (x3)
A |-------9-----------8----|-------7-----5---------|
E |----7-----------7-------|----7-----------7--5/7-|
B |-0-----------0----------|-0--------0------------|

(Guitar 2 - Distortion)
B |--------|--------|--------|-----------------------|
F#|--------|--------|--------|-----------------------|
D |--------|--------|--------|-----------------------|
A |--------|--------|--------|-----------------------|
E |--------|--------|--------|-----------------3--2--|
B |--------|--------|--------|-----------------1--0--|

(Guitar 1 - Clean)           (Tone switch - distortion)
B |------------------------|------------------------|
F#|------------------------|------------------------|
D |----------0-----------0-|------------------------|
A |-------9-----------8----|--7-7--7----------------|
E |----7-----------7-------|--5-5--5--------------2-|
B |-0-----------0----------|-----------6--5-5--3--0-|
PM                                     .  . .  .

(Guitar 2 - Distortion)
B |--------|------------------------|
F#|--------|------------------------|
D |--------|------------------------|
A |--------|--7-7--7----------------|
E |--------|--5-5--5--------------2-|
B |--------|-----------6--5-5--3--0-|
 
(Both Guitar - Distortion)
B |------------------------|-----------------------|
F#|------------------------|-----------------------|
D |----------0-----------0-|-----------------------|
A |-------9-----------8----|-------7-----5---------|
E |----7-----------7-------|----7-----------7--5/7-|
B |-------------0----------|----------0------------|

(Both Guitar - Distortion)
B |------------------------|------------------------|
F#|------------------------|------------------------|
D |----------0-----------0-|------------------------|
A |-------9-----------8----|-------7-----5----------|
E |----7-----------7-------|----7-----------7--3--2-|
B |-0-----------0----------|----------0--------1--0-|

(Both Guitar - Distortion)
B |------------------------|-----------------------|
F#|------------------------|-----------------------|
D |----------0-----------0-|-----------------------|
A |-------9-----------8----|-------7-----5---------|
E |----7-----------7-------|----7-----------7--5/7-|
B |-------------0----------|----------0------------|

(Both Guitar - Distortion)
B |------------------------|------------------------|
F#|------------------------|------------------------|
D |----------0-----------0-|------------------------|
A |-------9-----------8----|-------7-----5----------|
E |----7-----------7-------|----7-----------7--3--2-|
B |-0-----------0----------|----------0--------1--0-|

(Both Guitar - Distortion)
B |------------------------|-----------------------|
F#|------------------------|-----------------------|
D |----------0-----------0-|-----------------------|
A |-------9-----------8----|-------7-----5---------|
E |----7-----------7-------|----7-----------7--5/7-|
B |-------------0----------|----------0------------|

(Both Guitar - Distortion)
B |------------------------|------------------------|
F#|------------------------|------------------------|
D |----------0-----------0-|------------------------|
A |-------9-----------8----|-------7-----5----------|
E |----7-----------7-------|----7-----------7--3--2-|
B |-0-----------0----------|----------0--------1--0-|

(Both Guitar - Distortion)
B |-----------------------|------------------------|
F#|-----------------------|------------------------|
D |-----------------------|------------------------|
A |-----------------------|------------------------|
E |-2---------------------|-------------------3--2-|
B |-0--0--0--0-0--0--0--0-|-0--0--0--0--0--0--1--0-|
PM     .  .  . .  .  .  .   .  .  .  .  .  .

(Both Guitar - Distortion)
B |-----------------------|----------------------------|
F#|-----------------------|----------------------------|
D |-----------------------|----------------------------|
A |-----------------------|----3--2--------------------|
E |-2---------------------|----1--0-------3-------3--2-|
B |-0--0--0--0-0--0--0--0-|-0--------0-0--1--0-0--1--0-|
PM     .  .  . .  .  .  .   .        . .     . .

(Both Guitar - Distortion)
B |-----------------------|------------------------|
F#|-----------------------|------------------------|
D |-----------------------|------------------------|
A |-----------------------|------------------------|
E |-2---------------------|-------------------3--2-|
B |-0--0--0--0-0--0--0--0-|-0--0--0--0--0--0--1--0-|
PM     .  .  . .  .  .  .   .  .  .  .  .  .

(Both Guitar - Distortion)
B |-----------------------|----------------------------|
F#|-----------------------|----------------------------|
D |-----------------------|----------------------------|
A |-----------------------|----3--2------------------5-|
E |-2---------------------|----1--0-------3-------3--3-|
B |-0--0--0--0-0--0--0--0-|-0--------0-0--1--0-0--1----|
PM     .  .  . .  .  .  .   .        . .     . .

(Both Guitar - Distortion)
B |--------------------|---------------------|
F#|--------------------|---------------------|
D |--------------------|---------------------|
A |-5---------------7--|-7-------------------|
E |-3-----5---5-----5--|-5-----7-------------|
B |----0--3---3--0-----|----0--5---6-6--5--3-|
PM     .         .          .      . .  .  .

(Both Guitar - Distortion)
B |------------------------|-----------------|
F#|------------------------|-----------------|
D |------------------------|-----------------|
A |------------------------|-2---------------|
E |-2----------------------|-0-------------2-|
B |-0--0--0--0--0--0--0--0-|------------0--0-|
PM     .  .  .  .  .  .  .              .

(Guitar 1 - Clean)
B |--------------|------------|
F#|-------0------|--------0---|
D |-----------0--|--0---------|
A |----0---------|-----7------|
E |-2------------|------------|
B |--------------|------------|

(Guitar 2 - Distortion)
B |-----------------|-----------------|
F#|-----------------|-----------------|
D |-----------------|-----------------|
A |---------------7-|-----------------|
E |---------------5-|---------------5-|
B |------------0----|------------0--0-|
PM             .                 .

(Guitar 1 - Clean)
B |---------|--------|
F#|---------|--------|
D |---------|--------|
A |-7\5---4-|--------|
E |---------|--------|
B |---------|--------|

(Guitar 2 - Distortion)
B |-----------------|-----------------|
F#|-----------------|-----------------|
D |-----------------|-----------------|
A |---------------2-|-----------------|
E |---------------0-|---------------2-|
B |------------0----|------------0--0-|
PM             .                 .

(Guitar 1 - Clean)
B |--------------|------------|---------|
F#|-------0------|--------0---|---------|
D |-----------0--|--0---------|---------|
A |----0---------|-----7------|-7\5---4-|
E |-2------------|------------|---------|
B |--------------|------------|---------|

(Guitar 2 - Distortion)
B |-----------------|-----------------|-----------------|
F#|-----------------|-----------------|-----------------|
D |-----------------|-----------------|-----------------|
A |---------------7-|-----------------|-----------------|
E |---------------5-|---------------5-|---------------2-|
B |------------0----|------------0--0-|------------0--0-|
PM             .                 .                 .

(Both Guitar - Distortion)
B |------------------------|-----------------------|
F#|------------------------|-----------------------|
D |----------0-----------0-|-----------------------|
A |-------9-----------8----|-------7-----5---------|
E |----7-----------7-------|----7-----------7--5/7-|
B |-------------0----------|----------0------------|

(Both Guitar - Distortion)
B |------------------------|------------------------|
F#|------------------------|------------------------|
D |----------0-----------0-|------------------------|
A |-------9-----------8----|-------7-----5----------|
E |----7-----------7-------|----7-----------7--3--2-|
B |-0-----------0----------|----------0--------1--0-|

(Both Guitar - Distortion)
B |-----------------------|------------------------|
F#|-----------------------|------------------------|
D |-----------------------|------------------------|
A |-----------------------|------------------------|
E |-2---------------------|-------------------3--2-|
B |-0--0--0--0-0--0--0--0-|-0--0--0--0--0--0--1--0-|
PM     .  .  . .  .  .  .   .  .  .  .  .  .

(Both Guitar - Distortion)
B |-----------------------|---------------------------|
F#|-----------------------|---------------------------|
D |-----------------------|---------------------------|
A |-----------------------|----3--2-------------------|
E |-2---------------------|----1--0-------3------3--2-|
B |-0--0--0--0-0--0--0--0-|-0--------0-0--1--0-0-1--0-|
PM     .  .  . .  .  .  .   .        . .     . .

(Both Guitar - Distortion)
B |-----------------------|------------------------|
F#|-----------------------|------------------------|
D |-----------------------|------------------------|
A |-----------------------|------------------------|
E |-2---------------------|-------------------3--2-|
B |-0--0--0--0-0--0--0--0-|-0--0--0--0--0--0--1--0-|
PM     .  .  . .  .  .  .   .  .  .  .  .  .

(Both Guitar - Distortion)
B |-----------------------|---------------------------|
F#|-----------------------|---------------------------|
D |-----------------------|---------------------------|
A |-----------------------|----3--2-----------------5-|
E |-2---------------------|----1--0-------3------3--3-|
B |-0--0--0--0-0--0--0--0-|-0--------0-0--1--0-0-1----|
PM     .  .  . .  .  .  .   .        . .     . .

(Both Guitar - Distortion)
B |--------------------|---------------------|
F#|--------------------|---------------------|
D |--------------------|---------------------|
A |-5---------------7--|-7-------------------|
E |-3-----5---5-----5--|-5-----7-------------|
B |----0--3---3--0-----|----0--5---6-6--5--3-|
PM     .         .          .      . .  .  .

(Both Guitar - Distortion)
B |------------------------|-----------------|
F#|------------------------|-----------------|
D |------------------------|-----------------|
A |------------------------|-2---------------|
E |-2----------------------|-0-------------2-|
B |-0--0--0--0--0--0--0--0-|------------0--0-|
PM     .  .  .  .  .  .  .              .

(Guitar 1 - Clean)
B |--------------|------------|
F#|-------0------|--------0---|
D |-----------0--|--0---------|
A |----0---------|-----7------|
E |-2------------|------------|
B |--------------|------------|

(Guitar 2 - Distortion)
B |-----------------|-----------------|
F#|-----------------|-----------------|
D |-----------------|-----------------|
A |---------------7-|-----------------|
E |---------------5-|---------------5-|
B |------------0----|------------0--0-|
PM             .                 .

(Guitar 1 - Clean)
B |---------|--------|
F#|---------|--------|
D |---------|--------|
A |-7\5---4-|--------|
E |---------|--------|
B |---------|--------|

(Guitar 2 - Distortion)
B |-----------------|-----------------|
F#|-----------------|-----------------|
D |-----------------|-----------------|
A |---------------2-|-----------------|
E |---------------0-|---------------2-|
B |------------0----|------------0--0-|
PM             .                 .

(Guitar 1 - Clean)
B |--------------|------------|---------|
F#|-------0------|--------0---|---------|
D |-----------0--|--0---------|---------|
A |----0---------|-----7------|-7\5---4-|
E |-2------------|------------|---------|
B |--------------|------------|---------|

(Guitar 2 - Distortion)
B |-----------------|-----------------|--------|
F#|-----------------|-----------------|--------|
D |-----------------|-----------------|--------|
A |---------------7-|-----------------|--------|
E |---------------5-|---------------5-|--------|
B |------------0----|------------0--0-|--------|
PM             .                 .

(Both Guitar - Distortion)
B |--------------------|-------------|--------------------|-------------|
F#|--------------------|-------------|--------------------|-------------|
D |--------------------|-------------|---------------4----|--------7--7-|
A |---------------5----|--------5--7-|---------------2----|--------5--4-|
E |-3-3--3--3--3--3----|--------3--5-|--------------------|-------------|
B |--------------------|-------------|-0-0--0--0--0-------|-------------|
PM  . .  .  .  .                       . .  .  .  .

(Both Guitar - Distortion)
B |--------------------|-------------|------------------|--------------------|
F#|--------------------|-------------|------------------|--------------------|
D |--------------------|-------------|---------------4--|---------------7--7-|
A |---------------5----|--------5--7-|---------------2--|-0--0-0--0--0--5--4-|
E |-3-3--3--3--3--3----|--------3--5-|------------------|--------------------|
B |--------------------|-------------|-0-0--0--0--0-----|--------------------|
PM  . .  .  .  .                       . .  .  .  .          . .  .  .

(Both Guitar - Distortion)
B |--------------------|-------------|--------------------|-------------|
F#|--------------------|-------------|--------------------|-------------|
D |--------------------|-------------|---------------4----|--------7--7-|
A |---------------5----|--------5--7-|---------------2----|--------5--4-|
E |-3-3--3--3--3--3----|--------3--5-|--------------------|-------------|
B |--------------------|-------------|-0-0--0--0--0-------|-------------|
PM  . .  .  .  .                       . .  .  .  .

(Both Guitar - Distortion)
B |--------------------|-------------|------------------|--------------------|
F#|--------------------|-------------|------------------|--------------------|
D |--------------------|-------------|---------------4--|---------------7--7-|
A |---------------5----|--------5--7-|---------------2--|-0--0-0--0--0--5--4-|
E |-3-3--3--3--3--3----|--------3--5-|------------------|--------------------|
B |--------------------|-------------|-0-0--0--0--0-----|--------------------|
PM  . .  .  .  .                       . .  .  .  .          . .  .  .

(Both Guitar - Distortion)
B |--------------------|-------------|--------------------|-------------|
F#|--------------------|-------------|--------------------|-------------|
D |--------------------|-------------|---------------4----|--------7--7-|
A |---------------5----|--------5--7-|---------------2----|--------5--4-|
E |-3-3--3--3--3--3----|--------3--5-|--------------------|-------------|
B |--------------------|-------------|-0-0--0--0--0-------|-------------|
PM  . .  .  .  .                       . .  .  .  .

(Both Guitar - Distortion)
B |--------------------|-------------|------------------|--------------------|
F#|--------------------|-------------|------------------|--------------------|
D |--------------------|-------------|---------------4--|---------------7--7-|
A |---------------5----|--------5--7-|---------------2--|-0--0-0--0--0--5--4-|
E |-3-3--3--3--3--3----|--------3--5-|------------------|--------------------|
B |--------------------|-------------|-0-0--0--0--0-----|--------------------|
PM  . .  .  .  .                       . .  .  .  .          . .  .  .

(Both Guitar - Distortion)
B |--------------------|-------------|--------------------|-------------|
F#|--------------------|-------------|--------------------|-------------|
D |--------------------|-------------|---------------4----|--------7--7-|
A |---------------5----|--------5--7-|---------------2----|--------5--4-|
E |-3-3--3--3--3--3----|--------3--5-|--------------------|-------------|
B |--------------------|-------------|-0-0--0--0--0-------|-------------|
PM  . .  .  .  .                       . .  .  .  .

(Both Guitar - Distortion)
B |--------------------|-------------|------------------|--------------------------|
F#|--------------------|-------------|------------------|--------------------------|
D |--------------------|-------------|---------------4--|--------------------------|
A |---------------5----|--------5--7-|---------------2--|---------------7----------|
E |-3-3--3--3--3--3----|--------3--5-|------------------|---------------5-----3--2-|
B |--------------------|-------------|-0-0--0--0--0-----|-3-3--3--3--3-----0--1--0-|
PM  . .  .  .  .                       . .  .  .  .       . .  .  .  .     .

(Guitar 1 - Clean)
B |------------------------|-----------------------|
F#|------------------------|-----------------------|
D |----------0-----------0-|-----------------------|  (x2)
A |-------9-----------8----|-------7-----5---------|
E |----7-----------7-------|----7-----------7--5/7-|
B |-0-----------0----------|-0--------0------------|

(Guitar 2 - Distortion)
B |--------|------------------------|-----------------|-----------------|
F#|--------|------------------------|-----------------|-----------------|
D |--------|------------------------|-----------------|-----------------|
A |--------|--7-7--7--------------7-|-------7---------|-2---------------|
E |--------|--5-5--5--------------5-|-------5---------|-0-------------2-|
B |--------|-----------6--5-5--3----|-----------------|------------0--0-|
PM                     .  . .  .

(Guitar 1 - Clean)
B |--------------|------------|---------|--------|
F#|-------0------|--------0---|---------|--------|
D |-----------0--|--0---------|---------|--------|  (x3)
A |----0---------|-----7------|-7\5---4-|--------|
E |-2------------|------------|---------|--------|
B |--------------|------------|---------|--------|

(Guitar 2 - Distortion)
B |-----------------|-----------------|-----------------|-----------------|
F#|-----------------|-----------------|-----------------|-----------------|
D |-----------------|-----------------|-----------------|-----------------|  (x3)
A |---------------7-|-----------------|---------------2-|-----------------|
E |---------------5-|---------------5-|---------------0-|---------------2-|
B |------------0----|------------0--0-|------------0----|------------0--0-|
PM             .                 .                 .                 .

(Guitar 1 - Clean)
B |--------------|------------|---------|
F#|-------0------|--------0---|---------|
D |-----------0--|--0---------|---------|  (x3)
A |----0---------|-----7------|-7\5---4-|
E |-2------------|------------|---------|
B |--------------|------------|---------|

(Guitar 2 - Distortion)
B |-----------------|-----------------|-----------------|
F#|-----------------|-----------------|-----------------|
D |-----------------|-----------------|-----------------|
A |---------------7-|-----------------|-----------------|
E |---------------5-|---------------5-|---------------2-|
B |------------0----|------------0--0-|------------0--0-|
PM             .                 .                 .

(Both Guitar - Distortion)
B |------------------------|-----------------------|
F#|------------------------|-----------------------|
D |----------0-----------0-|-----------------------|
A |-------9-----------8----|-------7-----5---------|
E |----7-----------7-------|----7-----------7--5/7-|
B |-------------0----------|----------0------------|

(Both Guitar - Distortion)
B |------------------------|------------------------|
F#|------------------------|------------------------|
D |----------0-----------0-|------------------------|
A |-------9-----------8----|-------7-----5----------|
E |----7-----------7-------|----7-----------7--3--2-|
B |-0-----------0----------|----------0--------1--0-|

(Both Guitar - Distortion)
B |------------------------|-----------------------|
F#|------------------------|-----------------------|
D |----------0-----------0-|-----------------------|
A |-------9-----------8----|-------7-----5---------|
E |----7-----------7-------|----7-----------7--5/7-|
B |-------------0----------|----------0------------|

(Both Guitar - Distortion)
B |------------------------|------------------------|
F#|------------------------|------------------------|
D |----------0-----------0-|------------------------|
A |-------9-----------8----|-------7-----5----------|
E |----7-----------7-------|----7-----------7--3--2-|
B |-0-----------0----------|----------0--------1--0-|

(Both Guitar - Distortion)
B |---------------------|
F#|---------------------|
D |---------------------|
A |---------------------|
E |------3--2------3--2-|
B |---0--1--0---0--1--0-|


***********************

|  /  =  slide down
|  \  =  slide up
|  PM =  Palm Mute

***********************

            
            
Suggest correction
Creating personal tab
Creating personal tab
You can edit any tab online and save it as your Personal.

You can edit, replace or remove any tab part or add personal notes – all changes will be seen only by you.

Personal tabs can be accessed anytime from any device, even offline.
Learn more »
Give kudos to tab author, rate the tab!
1 2 3 4 5
comments
print report bad tab
guest
You may want to rate the tab now too:
select rating
Wanna post a correction for this tab? Suggest correction