Oops, an error
Loading. Please wait.

White Knuckles tab

version 4
version 4

Whole song

Interactive

14,139 views 1 this week
no commentswrite comment
1 2 3 4 5
x 5
add to favorites
×
Save as Personal and add changes to this tab that will be seen only by you. Learn more ›
×
You can save this tab as Personal to edit and correct it or add notes. All changes will be seen only by you. Learn more »
launch autoscroll
font size
0
reset
how to read this tab
guitar tuner
edit
Autoscroll
slow
fast
+/-
esc
set tempo
stop
-------------------------------------------------------------------------------
                    White Knuckles - Five Finger Death Punch
-------------------------------------------------------------------------------
Tabbed by: metalmonkey147
Email:

Tuning: Drop B

|---------------------------------------------------|
|---------------------------------------------------|
|---------------------------------------------------|
|---------------------------------------------------|
|---------------------------------------------------|
|-10h12-0000-7h8-0000-5h7-0000-3h5-0000-32003200----|
        ....     ....     ....     .... ........

|---------------------------------------------------|
|---------------------------------------------------|
|---------------------------------------------------|
|---------------------------------------------------|
|--------------------------------------------2h3----|
|-10h12-0000-7h8-0000-5h7-0000-3h5-0000-3200-2h3----|
        ....     ....     ....     .... ....

|---------------------------------------------------|
|---------------------------------------------------|
|---------------------------------------------------|
|---------------------------------------------------|
|---------------------------------------------------|
|-10h12-0000-7h8-0000-5h7-0000-3h5-0000-32003200----|
        ....     ....     ....     .... ........

|---------------------------------------------------|
|---------------------------------------------------|
|---------------------------------------------------|
|---------------------------------------------------|
|--------------------------------------------2------|
|-10h12-0000-7h8-0000-5h7-0000-3h5-0000-3200-2------|
        ....     ....     ....     .... ....

|---------------------------------------------------|
|---------------------------------------------------|
|---------------------------------------------------|
|---------------------------------------------------|
|---------------------------------------------------|
|-10h12-0000-7h8-0000-5h7-0000-3h5-0000-32003200----|
        ....     ....     ....     .... ........

|---------------------------------------------------|
|---------------------------------------------------|
|---------------------------------------------------|
|---------------------------------------------------|
|--------------------------------------------2h3----|
|-10h12-0000-7h8-0000-5h7-0000-3h5-0000-3200-2h3----|
        ....     ....     ....     .... ....

|---------------------------------------------------|
|---------------------------------------------------|
|---------------------------------------------------|
|---------------------------------------------------|
|---------------------------------------------------|
|-10h12-0000-7h8-0000-5h7-0000-3h5-0000-32003200----|
        ....     ....     ....     .... ........

|---------------------------------------------------|
|---------------------------------------------------|
|---------------------------------------------------|
|---------------------------------------------------|
|--------------------------------------------2------|
|-10h12-0000-7h8-0000-5h7-0000-3h5-0000-3200-2------|
        ....     ....     ....     .... ....

|--------------------------------------------------------------------------------|
|--------------------------------------------------------------------------------|
|--------------------------------------------------------------------------------|
|--------------------------------------------------------------------------------| x2
|-10--12---7--8---5--7---3--5------------10--12---7--8---5--7---3--5--------2----|
|-10--12---7--8---5--7---3--5---32003200-10--12---7--8---5--7---3--5---3200-2----|
  .   .    .  .   .  .   .  .   ........ .   .    .  .   .  .   .  .   ....

|--------------------------------------------------------------------------------|
|--------------------------------------------------------------------------------|
|--------------------------------------------------------------------------------|
|--------------------------------------------------------------------------------| x2
|-10--12---7--8---5--7---3--5------------10--12---7--8---5--7---3--5--------2----|
|-10--12-007--8-005--7-003--5-0032003200-10--12-007--8-005--7-003--5-003200-2----|
         ..     ..     ..     ..........        ..     ..     ..     ......

|------------------------------------------------------------------------|
|------------------------------------------------------------------------|
|------10-10--9------------10-10--9------------10-10--9--10--13b--12~~---|
|-/12------------12p10h12------------12p10h12----------------------------|
|------------------------------------------------------------------------|
|------------------------------------------------------------------------|

|------------------------------------------------------------------------|
|------------------------------------------------------------------------|
|------10-10--9------------10-10--9------------10-10--9--10--13b--12~~---|
|--12------------12p10h12------------12p10h12----------------------------|
|------------------------------------------------------------------------|
|------------------------------------------------------------------------|
                                                             * 

|---------------------------------------------------|
|---------------------------------------------------|
|---------------------------------------------------|
|---------------------------------------------------|
|---------------------------------------------------|
|-10h12-0000-7h8-0000-5h7-0000-3h5-0000-32003200----|
        ....     ....     ....     .... ........

|---------------------------------------------------|
|---------------------------------------------------|
|---------------------------------------------------|
|---------------------------------------------------|
|--------------------------------------------2h3----|
|-10h12-0000-7h8-0000-5h7-0000-3h5-0000-3200-2h3----|
        ....     ....     ....     .... ....

|---------------------------------------------------|
|---------------------------------------------------|
|---------------------------------------------------|
|---------------------------------------------------|
|---------------------------------------------------|
|-10h12-0000-7h8-0000-5h7-0000-3h5-0000-32003200----|
        ....     ....     ....     .... ........

|---------------------------------------------------|
|---------------------------------------------------|
|---------------------------------------------------|
|---------------------------------------------------|
|--------------------------------------------2------|
|-10h12-0000-7h8-0000-5h7-0000-3h5-0000-3200-2------|
        ....     ....     ....     .... ....

|--------------------------------------------------------------------------------|
|--------------------------------------------------------------------------------|
|--------------------------------------------------------------------------------|
|--------------------------------------------------------------------------------| x2
|-10--12---7--8---5--7---3--5------------10--12---7--8---5--7---3--5--------2----|
|-10--12---7--8---5--7---3--5---32003200-10--12---7--8---5--7---3--5---3200-2----|
  .   .    .  .   .  .   .  .   ........ .   .    .  .   .  .   .  .   ....

|--------------------------------------------------------------------------------|
|--------------------------------------------------------------------------------|
|--------------------------------------------------------------------------------|
|--------------------------------------------------------------------------------| x2
|-10--12---7--8---5--7---3--5------------10--12---7--8---5--7---3--5--------2----|
|-10--12-007--8-005--7-003--5-0032003200-10--12-007--8-005--7-003--5-003200-2----|
         ..     ..     ..     ..........        ..     ..     ..     ......


|---------------------------------------------------------------------------|
|---------------------------------------------------------------------------|
|------10-10--9------------10-10--9------------10-10--9--10--13b--12--10--9-|
|-/12------------12p10h12------------12p10h12-------------------------------|
|---------------------------------------------------------------------------|
|---------------------------------------------------------------------------|
                                                             *

|---------------------------------------------------------------------------|
|---------------------------------------------------------------------------|
|------10-10--9------------10-10--9------------10-10--9--10--13b--12--10--9-|
|--12------------12p10h12------------12p10h12-------------------------------|
|---------------------------------------------------------------------------|
|---------------------------------------------------------------------------|
                                                             *    

|----------------------------------------------------------------------------------|
|----------------------------------------------------------------------------------|
|-----10-10--9---------------------------------------------------------------------|
|-12------------12p10-10~-----10--12--10-------------------------------------------|
|-----------------------------------------12~--12--10----------------------10--12--|
|------------------------------------------------------15--12--10--12--15----------|


|--------------------------------------------------------------------------------|
|--------------------------------------------------------------------------------|
|------10-10--9------------10-10--9------------10-10--9--10--13b--12--10--9------|
|----------------12p10h12------------12p10h12--------------------------------12--|
|-12-----------------------------------------------------------------------------|
|--------------------------------------------------------------------------------|
                                                             *    
 (2:19-2:33)
|----------------------------------------|
|----------------------------------------|
|----------------------------------------|
|----------------------------------------|
|----------------------------------------|
|--00000000000000000000000000000000000---|
   ...................................

|----------------------------------------|
|----------------------------------------|
|----------------------------------------|
|----------------------------------------| x8
|----------------------------------------|
|--0000-000200030005000-0002000-2b-------|
   .... ............... .......

 Sorry i cant do the solo you'll have to find it in some other tab
this is played under the solo

|------------------------------------------------------|
|------------------------------------------------------|
|------------------------------------------------------|
|---------7---5--5--5-5---5--5--5----------------------| x4
|-0--0--0-5---3--3--3-3---3--3--3-8--7--3-0--0--0-0----|
|-0--0--0-------------------------8--7--3-0--0--0-0----|
  .  .  .     .  .  .     .  .  .         .  .  .

 (3:27)
|---------------------------------------------------|
|---------------------------------------------------|
|---------------------------------------------------|
|---------------------------------------------------|
|---------------------------------------------------|
|-10h12-0000-7h8-0000-5h7-0000-3h5-0000-32003200----|
        ....     ....     ....     .... ........

|---------------------------------------------------|
|---------------------------------------------------|
|---------------------------------------------------|
|---------------------------------------------------|
|--------------------------------------------2------|
|-10h12-0000-7h8-0000-5h7-0000-3h5-0000-3200-2------|
        ....     ....     ....     .... ....

|--------------------------------------------------------------------------------|
|--------------------------------------------------------------------------------|
|--------------------------------------------------------------------------------|
|--------------------------------------------------------------------------------| x2
|-10--12---7--8---5--7---3--5------------10--12---7--8---5--7---3--5--------2----|
|-10--12-007--8-005--7-003--5-0032003200-10--12-007--8-005--7-003--5-003200-2----|
         ..     ..     ..     ..........        ..     ..     ..     ......


|---------------------------------------------------------------------------|
|---------------------------------------------------------------------------|
|------10-10--9------------10-10--9------------10-10--9--10--13b--12--10--9-|
|-/12------------12p10h12------------12p10h12-------------------------------|
|---------------------------------------------------------------------------|
|---------------------------------------------------------------------------|
                                                             *

|---------------------------------------------------------------------------|
|---------------------------------------------------------------------------|
|------10-10--9------------10-10--9------------10-10--9--10--13b--12--10--9-|
|--12------------12p10h12------------12p10h12-------------------------------|
|---------------------------------------------------------------------------|
|---------------------------------------------------------------------------|
                                                             *    

|----------------------------------------------------------------------------------|
|----------------------------------------------------------------------------------|
|-----10-10--9---------------------------------------------------------------------|
|-12------------12p10-10~-----10--12--10-------------------------------------------|
|-----------------------------------------12~--12--10----------------------10--12--|
|------------------------------------------------------15--12--10--12--15----------|


|--------------------------------------------------------------------------------|
|--------------------------------------------------------------------------------|
|------10-10--9------------10-10--9------------10-10--9--10--13b--12--10--9------|
|----------------12p10h12------------12p10h12--------------------------------12--|
|-12-----------------------------------------------------------------------------|
|--------------------------------------------------------------------------------|
                                                             *    

|---------------------------------------------------|
|---------------------------------------------------|
|---------------------------------------------------|
|------------------------------------------------0--|
|------------------------------------------------0--|
|-10h12-0000-7h8-0000-5h7-0000-3h5-0000-32002333-0--|
        ....     ....     ....     .... ........


************************************

| .   palm mute
| /   slide up
| \   slide down
| h   hammer-on
| p   pull-off
| ~   vibrato
| *   harmonic
| x   Mute note
| b   Bend
| pb  Pre-bend
| br  Bend release
| pbr Pre-bend release
| brb Bend release bend

************************************

            
            
Suggest correction
Creating personal tab
Creating personal tab
You can edit any tab online and save it as your Personal.

You can edit, replace or remove any tab part or add personal notes – all changes will be seen only by you.

Personal tabs can be accessed anytime from any device, even offline.
Learn more »
comments
print report bad tab
guest
You may want to rate the tab now too:
select rating
Wanna post a correction for this tab? Suggest correction