Oops, an error
Loading. Please wait.
We have Chord Pro version of 100 Years.
It's the closest thing you can get to the original song and it has interactive parts. Check out the tab »
×
49,281 views 27 this week
2 commentsread comments
1 2 3 4 5
x 20
add to favorites
×
Save as Personal and add changes to this tab that will be seen only by you. Learn more ›
×
You can save this tab as Personal to edit and correct it or add notes. All changes will be seen only by you. Learn more »
launch autoscroll
font size
0
reset
how to read this tab
guitar tuner
backing track
0:00
0:00
edit
Autoscroll
slow
fast
+/-
esc
set tempo
stop
Author
Difficulty
-------------------------------------------------------------------------------
			     100 Years – Five for Fighting
-------------------------------------------------------------------------------
Tabbed by: musicfreak3
Email:smachin1@tampabay.rr.com
Tuning: standard
	Hey, I don’t think anybody’s tabbed this intro yet since it’s known so well on piano, 
here it is……

Intro

e|------3--3------------------------3---3----------------------------------|
B|------------0--1--1--0--1—3--------------0---1---1--0--1--3--1--0--------|
G|-------------------------------------------------------------------------|
D|---------------------------------------------0---------------------------|
A|---------------3-------------0-------------------------------------------|
E|---3--------------------------------------------------------------3------|

e|---3--3------------------0-----------------------------------------------|
B|---------3--0--0--1--3-------0--0----------------------------------------|
G|------------------------------------2---0------0-------------------------|
D|------------2-----------------------0-------4----------------------------|
A|-------------------------0-----------------------------------------------|
E|-------------------------------------------------------------------------|

| /  slide up
| \  slide down
| h  hammer-on
| p  pull-off
| ~  vibrato
| +  harmonic
| x  Mute note
===============================================================================
-Verse: (with riff)
I’m 15 for a moment, caught in between 10 and 20 and I’m just dreamin’, counting the
to where you are

-Verse: (Strumming)

G    C       Am7                 D7                   G        Em
I’m 22 for a moment, she feels better than ever and we’re on fire, chasing
     C             D    G
our way back from Mars

-Chorus 1: softly
G     D          C         G          D           C     G      Em
15 There’s still time for you, time to buy and time to loose, 15, there’s
           C    Em         C
never  a wish better than this
D (bass only)                                      G
when you’ve only got 100 years to live

G, C, Am7, D7, G

-Verse: (same chords)
I’m 33 for a moment, still the man, but you see I’m a they kid on the way and a family 
my mind

-Verse:
I’m 45 for a moment, the sea is high and I’m heading into a crisis, chasing the years of 
life

-Chorus 2:
G      D          C      G              D     C         Em            C
15 There’s still time for you time to buy and time to lose yourself within
D
morning star
G    D        C    G      Em                 C       Em         C
15 I’m alright with you, 15, there’s never a wish better than this, when
         D                     C
you’ve only got 100 years to live

Bridge:
C                         Dsus          Em                      Fmaj7
Half the time goes by, suddenly you’re wise, another blink of an eye, 67 is
 C                       Dsus              G
gone the sun is getting high  We’re movin’ on

(Intro)
with intro-
 I’m 99 for a moment, dying for just another moment and I’m just dreamin’ counting the
to where you are

-Chorus 3-

G      D        C          G     D   C         G     D      C
15 There’s still time for you, 22 I feel her too, 33 you’re on your way,
G       D      C
every day’s a new day

(Ooh) 3 times-  G, D, C, G, D, C, G, D, C, Em, C

-Chorus-
G     D      C     G     Em                   C      Em        C
15 I’m alright with you, 15, there’s never a wish better than this, when
D (bass only)                 (begin outro)
youv’e only got 100 years to live

-Outro- softly
e|------3--3-------------------------3--3------------------------------------|
B|------------0--1--1--0--1--3-------------0--1--1--0--1--3------------------|
G|---------------------------------------------------------------------------|
D|--------------------------------------------0-(let ring)-------------------|
A|---------------3--------------0--------------------------------------------|
e!----3----------------------------------------------------------------------|

Well, that’s it! The song is tabbed in order- no skipping around! This is my first time
so I hope
you like it!
musicfreak3

            
            
Suggest correction
Creating personal tab
Creating personal tab
You can edit any tab online and save it as your Personal.

You can edit, replace or remove any tab part or add personal notes – all changes will be seen only by you.

Personal tabs can be accessed anytime from any device, even offline.
Learn more »
comments
print report bad tab
2 comments total.
0 reply
Takamine916 40 Aug 13, 2008 05:08 PM

Sick tab! I am learning the intro and it sounds great, thus far!

0 reply
oh rachelle 51 Jul 11, 2009 11:32 PM

Very great! :D I'm not sure where this comes in though?---

e|----------------------------------------------|
B|-0-----0------------------------------------|
G|---------------2----0-----------0----------|
D|---------------0------------4---------------|
A|----------------------------------------------|
E|----------------------------------------------|

It's the second part, of the second line, of the Introduction. If anyone knows, please message me. (:

guest
You may want to rate the tab now too:
select rating
Wanna post a correction for this tab? Suggest correction