Oops, an error
Loading. Please wait.

Pussaillaan chords

58 views 1 this week
no commentswrite comment
1 2 3 4 5
x 3
add to favorites
×
Save as Personal and add changes to this tab that will be seen only by you. Learn more ›
×
You can save this tab as Personal to edit and correct it or add notes. All changes will be seen only by you. Learn more »
launch autoscroll
font size
0
reset
transpose
0
reset
simplify chords
display chords
guitar tuner
edit
Autoscroll
slow
fast
+/-
esc
set tempo
stop
Strumming
There is no strumming pattern for this song yet. and get +5 IQ
======================
Flanelli - Pussaillaan
======================
Tabbed by: Kövis

Tuning: Standard E


    F#m/C#  |   E/B       A/D        A               A/C#       D         E    
e |---------|---------|---------|----0----|     e|----9----|---10----|---12----| Optional chords to play
B |----7----|----5----|----2----|----5----|     B|---10----|---10----|---12----| with in the verses
G |----6----|----4----|----2----|----6----|     G|----9----|---11----|---13----|
D |----4----|----2----|----0----|----7----|     D|---11----|---12----|---14----|
A |----4----|----2----|---------|----0----|     A|---------|---------|---------|
E |---------|---------|---------|---------|     E|---------|---------|---------|

[Intro]
[0:00]
F#m/C#  E/B  A/D
F#m/C#  E/B  A/D
F#m/C#  E/B  A/D
F#m/C#  E/B  A/D      

[Verse 1]
[0:23]
   F#m/C#  E/B     A/D
Kun kädet toisiinsa tutustuu,
     F#m/C#  E/B     A/D
auton ikkunalasitkin huurustuu
F#m/C#     E/B         A/D
Humalaiset kutsuhuudot kaduilla kaikuu,
F#m/C#  E/B        A
ihmiset unelmiinsa vaipuu

            F#m/C#      E/B        A/D
Silloin kun sinä kerrot tarinaa ja minä olen vailla,
F#m/C#  E/B        A/D
päätäsi paijaan ja alan kuvailla
F#m/C#     E/B        A/D             F#m/C#  E/B   A/D
sormillani hurrikaani ihoosi piirtyy, hiiiiljaaisuus...

[Bridge]
[0:54]
          F#m/C#   E/B   A/D
Mä tahdon minä, ja sinä, pussaillaan
      F#m/C#  E/B  A/D
kohti aamua   nousevaa
              F#m/C#     E/B  A/D      
Sillain että  sinun  sydämesi pu-ump-paa
       F#m/C#  E/B  A/D
kohti  minua   arempaa

               F#m/C#  E/B         A/D
Mä tahdon että me, eli minä, sinä, pussaillaan
     F#m/C#      E/B     A/D
pidä sinä kiinni silmäsi hetken vaan
F#m/C#  E/B         A/D
Silloin ehkä saatan kurkottaa
F#m/C#  E/B   A/D
Mitään ei voi pakottaa
Kuuletko ne...

[Chorus]
[1:25]
F#m/C#  E/B     A/D              
Pum,    pum,    paa.. äänet         X2
F#m/C#  E/B     A/D             
Rum-,   mut-,  -taa sykkeemme  

[Interlude]
[1:41]
    F#m/C# |   E/B                Fm       F#m/C# |   E/B               Fm    
e |------------------|-----------5-5-5--|------------------|-----------5-5-5--|
B |------------------|-----------7-7-7--|------------------|-----------7-7-7--|
G |------------------|-----------6-6-6--|--------------6-4-|-----------6-6-6--|
D |----4---------7---|---4>0-----4-4-4--|----4-------------|---7>0-----4-4-4--|
A |---4--------7-----|------------------|---4--------7-----|------------------|
E |------------------|------------------|------------------|------------------|

    F#m/C#  |   E/B               Fm       F#m/C# |   E/B       A    
e |------------------|-----------5-5-5--|------------------|----5----|
B |------------------|-----------7-7-7--|------------------|----5----|
G |------------------|-----------6-6-6--|--------------6-4-|----6----|
D |----4---------7---|---4>0-----4-4-4--|----4-------------|----7----|
A |---4--------7-----|------------------|---4--------7-----|---------|
E |------------------|------------------|------------------|---------|


(Chords for V2)
     F#m        E         D                                              
e|----5----|----4----|----2----|
B|----7----|----5----|----3----|
G|----6----|----4----|----2----|
D|---------|---------|----0----|
A|---------|---------|---------|
E|---------|---------|---------|

[Verse 2]
[1:55]
F#m     E         D
Katseet toisiinsa hidastuu
       F#m      E         D
näissä vai näihinkö hetkiin ihastuu
F#m        E        D
jumalaisen oranssit taivaanmerkit
F#m  E      D
uhkarohkeat ensileikit

            F#m         E          D                     
Silloin kun minä kerron tarinaa ja sanat ovat siinä      
F#m     E       D                                        
suurien silmies piirittäminä                             
F#m     E              D         F#m  E       A/D        
reiteen viiden pisteen puristus, vastustamaton..         
                                                         
[Bridge]
[2:24]
          F#m      E     D
Mä tahdon minä, ja sinä, pussaillaan
      F#m   E       D
kohti aamua nousevaa
             F#m       E    D
Sillain että sinun sydämesi pu-ump-paa
      F#m   E       A/D
kohti minua arempaa
               F#m     E           D
Mä tahdon että me, eli minä, sinä, pussaillaan
     F#m         E       D
pidä sinä kiinni silmäsi hetken vaan
F#m     E           D
Silloin ehkä saatan kurkottaa
F#m    E
Mitään ei voi pakottaa

[Chorus]
[2:53]
F#m/C#  E/B     A/D             
Pum,    pum,    paa.. äänet                                         X4
F#m/C#  E/B     A/D             
Rum-,   mut-,  -taa sykkeemme   

[Solo]
[3:20]
e|----------------------9---------------------------------|
B|-------------7b10-------12------------------------------|
G|---------4h6--------------11-11-------------------------|
D|------4h7-----------------------11-9-7-9b11-7-7---------|
A|---4h7---------------------------------------9--7h9\0---|
E|--------------------------------------------------------|

e|--------------------------------------------------------|
B|---7\5-5-5/7-7-7/9-9-9/10-10-10/12-12-12/14-------------|
G|--------------------------------------------------------|
D|---4\2-2-2/4-4-4/6-6-6/7--7---7/9---9--9/11-------------|
A|--------------------------------------------------------|
E|--------------------------------------------------------|

e|-----------------------------------------9-12p9-12-12b14|
B|10/12-12-12/14-14-14/17--5/7-7-7/9-9-9h10---------------|
G|--------------------------------------------------------|
D|-7/9---9--9/11-11-11/14---------------------------------|
A|--------------------------------------------------------|
E|--------------------------------------------------------|

[Outro]
[3:34]
F#m/C#  E/B   D/A              F#m/C#  E/B
Minä ja sinä pussaillaan!
D/A
me, eli minä sinä!

[3:43]
e|--------------------------------------------|
B|-14b12-10-12-14b12----------15b17-----------|
G|--------------------------------------------|
D|--------------------------------------------|
A|--------------------------------------------|
E|--------------------------------------------|

            
            
Suggest correction
Creating personal tab
Creating personal tab
You can edit any tab online and save it as your Personal.

You can edit, replace or remove any tab part or add personal notes – all changes will be seen only by you.

Personal tabs can be accessed anytime from any device, even offline.
Learn more »
Give kudos to tab author, rate the tab!
1 2 3 4 5
comments
print report bad tab
guest
You may want to rate the tab now too:
select rating
Wanna post a correction for this tab? Suggest correction