Oops, an error
Loading. Please wait.

City On A Hill tab

58 views 1 this week
no commentswrite comment
1 2 3 4 5
3 more votes to show rating
add to favorites
×
Save as Personal and add changes to this tab that will be seen only by you. Learn more ›
×
You can save this tab as Personal to edit and correct it or add notes. All changes will be seen only by you. Learn more »
launch autoscroll
font size
0
reset
how to read this tab
guitar tuner
edit
Autoscroll
slow
fast
+/-
esc
set tempo
stop
Author
Difficulty
[Intro/ Verses]
e|---------------------------------------|
B|---------------------------------------|
G|-------------------5~------------7--5--|
D|-2~-------5~-------5~-------7~---7--5--|
A|-2~-------5~-------3~-------7~---5--3--|
E|-0~-------3~----------------5~---------|

[Chorus/Outro]
e|--------------------------------------|
B|--------------------------------------|
G|----------5~----------------5~---7~---|
D|-2~-------5~-------5~-------5~---7~---|
A|-2~-------3~-------5~-------3~---5~---|
E|-0~----------------3~-----------------|

[Mandolin Riff 1]
e|--------------------------------------------------------------|
B|------------------10--12--10---------------10--12--13--12--10-|
G|-9--9--9--11--12--------------12--12-12-12--------------------|
D|--------------------------------------------------------------|
A|--------------------------------------------------------------|
E|--------------------------------------------------------------|

e|--------------------------10--------------------------------------|
B|--------------10--12--13------10--12--12-12-12--13--12--10--------|
G|-12--12-12-12-----------------------------------------------12—11-|
D|------------------------------------------------------------------|
A|------------------------------------------------------------------|
E|------------------------------------------------------------------|

e|------------------------------------------------------------|
B|------------------------10---------------10--12--13--12--10-|
G|-9--9-9-9----9--11--12------12--12-12-12--------------------|
D|----------12------------------------------------------------|
A|------------------------------------------------------------|
E|------------------------------------------------------------|

e|--------------------------10-------------------------------------|
B|--------------10--12--13------10--12--12-12-12-13--12------------|
G|-12--12-12-12------------------------------------------12--11--9-|
D|-----------------------------------------------------------------|
A|-----------------------------------------------------------------|
E|-----------------------------------------------------------------|

[Mandolin Riff 2]
e|-12----10--------------------------------------10-|
B|----12----10-12----10-----------------10-12-13----|
G|----------------12------12--12-12-12--------------|
D|--------------------------------------------------|
A|--------------------------------------------------|
E|--------------------------------------------------|

e|------------------------10---10--10-10-10-12-10----------|
B|---------------10-12-13-------------------------12-10----|
G|-12--12-12-12-----------------------------------------12-|
D|---------------------------------------------------------|
A|---------------------------------------------------------|
E|---------------------------------------------------------|

[Mandolin Riff 3 x2]
e|-----------------------------------------------------------|
B|-----------------------------------------------------------|
G|-9-9-9----9-11-12---9-9-9----9-11-12------------11-12-11-9-|
D|-------12-----------------12-----------12-12-12------------|
A|-----------------------------------------------------------|
E|-----------------------------------------------------------|
                               |--2nd time-|
e|-------------------------|   |-----------|
B|----------10-12-10-------|   |-----------|
G|-12-12-12----------12-11-|   |-9----9----|
D|-------------------------|   |-----------|
A|-------------------------|   |-----------|
E|-------------------------|   |-----------|

Order…

Intro x4(Mandolin Riff 1 comes in on the 3rd time)
Verse 1 x4
Mandolin Riff 2(with Chorus chords)
Chorus x2
Mandolin Riff 2 x2
Verse 2 x2
Mandolin Riff 2
Chorus x2
Mandolin Riff 2 x3
Verse 2 N.C.
Mandolin Riff 3
Chorus
Mandolin Riff 2 x2
Outro x2

            
            
Suggest correction
Creating personal tab
Creating personal tab
You can edit any tab online and save it as your Personal.

You can edit, replace or remove any tab part or add personal notes – all changes will be seen only by you.

Personal tabs can be accessed anytime from any device, even offline.
Learn more »
Give kudos to tab author, rate the tab!
1 2 3 4 5
comments
print report bad tab
guest
You may want to rate the tab now too:
select rating
Wanna post a correction for this tab? Suggest correction