Oops, an error
Loading. Please wait.

All The Worst intro bass

by Flaw
686 views 1 this week
1 commentread comment
1 2 3 4 5
3 more votes to show rating
add to favorites
×
Save as Personal and add changes to this tab that will be seen only by you. Learn more ›
×
You can save this tab as Personal to edit and correct it or add notes. All changes will be seen only by you. Learn more »
launch autoscroll
font size
0
reset
guitar tuner
edit
Autoscroll
slow
fast
+/-
esc
set tempo
stop
Author
Difficulty
intro

|-----11-------9-------14-------12-------16/17----|
|---9--------7-------5--------5--------9----------|
|-------------------------------------------------|
|-7--------5-------3--------3--------7------------|

|-----11-------9-------14-------9--------9/11-----|
|---9--------7-------5--------7--------5----------|
|-------------------------------------------------|
|-7--------5-------3--------5--------3------------|

|-----11-------9-------14-------12-------16/17----|
|---9--------7-------5--------5--------9----------|
|-------------------------------------------------|
|-7--------5-------3--------3--------7------------|

|-----11-------9-------14~------------------------|
|---9--------7-------5~---------------------------|
|-------------------------------------------------|
|-7--------5-------3~-----------------------------| x1

Verse(same as intro) x3

chorus
|-------------------------------------------------|
|----------------------------------------14-------|
|----------7~------7~-----3--330---10/12----12----|
|-0~---000-----000--------------------------------|

|-------------------------------------------------|
|-------------------------10h12--10-9-------------|
|----------7~------7~-----------------10~---------|
|-0~---000-----000--------------------------------|

|---------------------|
|---------------------|
|-2/3~---3-5~---5-7~--|
|---------------------| x2

bass run
|-----11-------9-------14~---|----11-----9------14------9-----9/11--|
|---9--------7-------5~------|--9------7------5-------7-----5-------|
|----------------------------|--------------------------------------|
|-7--------5-------3~--------|-7-----5------3-------5-----3---------|

verse x3

chorus x2

guitar solo/verse2
???

chorus x2

            
            
Suggest correction
Creating personal tab
Creating personal tab
You can edit any tab online and save it as your Personal.

You can edit, replace or remove any tab part or add personal notes – all changes will be seen only by you.

Personal tabs can be accessed anytime from any device, even offline.
Learn more »
Give kudos to tab author, rate the tab!
1 2 3 4 5
comments
print report bad tab
1 comment total.
0 reply
basstom 93 Jan 12, 2011 05:50 AM

ooh proobably there are the right notes but you tabbed it the wrong way. to grip the 14th fret on G string (second climb in the intro) just after the 5th fret on D string in original tempo will be impossible!
the same for all the other climbs

guest
You may want to rate the tab now too:
select rating
Wanna post a correction for this tab? Suggest correction