Oops, an error
Loading. Please wait.

Montezuma tab

5,109 views 48 this week
no commentswrite comment
1 2 3 4 5
x 4
add to favorites
×
Save as Personal and add changes to this tab that will be seen only by you. Learn more ›
×
You can save this tab as Personal to edit and correct it or add notes. All changes will be seen only by you. Learn more »
launch autoscroll
font size
0
reset
how to read this tab
guitar tuner
edit
Autoscroll
slow
fast
+/-
esc
set tempo
stop
Author
-----------------------------------------------------------------

-----------------------------------------------------------------

Tabbed By : Aeonoptic
e-mail: aeonoptic@gmail.com

Tuning: EADGBe

  C
E|---------------|---------------|---------------|---------------|---------------|---------------|
B|---------------|---------------|---------------|---------------|------5--------|---------------|
G|--5---5---5---5|--5---5---5---5|--5---5---5---5|--5---5---5----|--5-------5---5|--5---5---5----|
D|----5-------5--|----5-------5--|----5-------5--|----5-------3h5|----5-------5--|----5-------3h5|
A|3-------3------|3-------3------|3-------3------|3-------3------|3-------3------|3-------3------|
E|---------------|---------------|---------------|---------------|---------------|---------------|

E|---------------|---------------|
B|--------------5|---------------|
G|--5---5---5----|--5---5---5---5|
D|----5-------5--|----5-------5--|
A|3-------3------|3-------3------|
E|---------------|---------------|

C           G  F
So now I am older
Em              F
Than my mother and father
Em              Dm
When they had their daughter
    G              F         G  G7
Now what does that say about me?
   C           G     F
Oh how could I dream of
Em                  F
Such a selfless and true love
Em             Dm
Could I wash my hands of?
G           F       G  G7
Just lookin out for me

  C                               G               F               Em            
E|---------------|---------------|---------------|---------------|--0---0---0---0|--0---0---0---0|
B|---------------|---------------|--3---3---3---3|--1---1---1---1|----2-------2--|----2-------2--|
G|--5---5---5---5|--5---5---5---5|----4-------4--|----2-------2--|---------------|---------------|
D|----5-------5--|----5-------5--|5-------5------|3-------3------|2-------2------|2-------2------|
A|3-------3------|3-------3------|---------------|---------------|---------------|---------------|
E|---------------|---------------|3-------3------|1-------1------|---------------|---------------|

  F                               Em                              Dm
E|--1---1---1---1|--1---1---1---1|--0---0---0---0|--0---0---0---0|---------------|---------------|
B|----1-------1--|----1-------1--|----2-------2--|----2-------2--|--3---3---3---3|--3---3---3---3|
G|---------------|---------------|---------------|---------------|----2-------2--|----2-------2--|
D|3-------3------|3-------3------|2-------2------|2-------2------|0-------0------|0-------0------|
A|---------------|---------------|---------------|---------------|---------------|---------------|
E|---------------|---------------|---------------|---------------|---------------|---------------|

  G               F               G                       G7
E|---------------|---------------|---------------|---------------|---------------|
B|--3---3---3---3|--1---1----1--1|--3---3---3---3|--3---3---3---3|--3---3---3---3|
G|----4-------4--|----2-------2--|----4-------4--|----4-------4--|----4-------4--|
D|---------------|---------------|---------------|5-------3------|3-------3------|
A|---------------|---------------|---------------|---------------|---------------|
E|3-------3------|1-------1------|3-------3------|---------------|---------------|

   F          Em      Dm 
Oh man what I used to be
   F   Em Dm G  G7
Oh man oh my oh me
   F          Em      Dm
Oh man what I used to be
   F   Em Dm G  G7
Oh man oh my oh me


  F    Em Dm      F   Em  Dm      G               G7
E|-------|-------|-------|-------|---------------|---------------|
B|-------|-------|-------|-------|-----3--------3|--3---3---3---3|
G|--5---4|--2---2|--5---4|--2---2|--4-------4----|----4-------4--|
D|-------|-------|-------|-------|----5-------5--|3-------3------|
A|8---7--|5---5--|8---7--|5---5--|---------------|---------------| x2
E|-------|-------|-------|-------|3-------3------|---------------|

(Same as first verse)

In dirth or in excess
Both the slave and the empress
Will return to the dirt I guess
Naked as when they came
I wonder if I'll see
Any faces above me
Or just cracks in the ceiling
Nobody else to blame

Repeat chorus
However, only the G7 is fingerpicked 

The weird "ooooh" bit just alternates between a G and F strummed

Verse 3 isstrummed lightly, aside from after "name", where the G7 is again fingerpicked

Gold teeth and gold jewelry
Every piece of your dowry
Throw them into the tomb with me
Bury them with my name

strummed lightly from here on, aside from after the G7, which is again fingerpicked

Unless I have someday
Ran my wandering
In my underwaaaa
Em Dm
aaaay
G F G G7
ooooo

   F          Em      Dm (hold)
Oh man what I used to be

  Dm
E|---------------|------1-------1|
B|--3---3---3---3|--3-------3----|
G|----2-------2--|----2-------2--|
D|0-------0------|0-------0------|
A|---------------|---------------|
E|---------------|---------------|
 
    F    Em     Dm 
Montezuma to tripoli
   F   Em Dm F  G
Oh man oh my oh me

| /  slide up
| \  slide down
| h  hammer-on
| p  pull-off
| ~  vibrato
| +  harmonic
| x  Mute note

            
            
Suggest correction
Creating personal tab
Creating personal tab
You can edit any tab online and save it as your Personal.

You can edit, replace or remove any tab part or add personal notes – all changes will be seen only by you.

Personal tabs can be accessed anytime from any device, even offline.
Learn more »
comments
print report bad tab
guest
You may want to rate the tab now too:
select rating
Wanna post a correction for this tab? Suggest correction