Oops, an error
Loading. Please wait.

Big Love tab

version 3
version 3

Whole song

Interactive

982 views 39 this week
1 commentread comment
1 2 3 4 5
2 more votes to show rating
add to favorites
×
Save as Personal and add changes to this tab that will be seen only by you. Learn more ›
×
You can save this tab as Personal to edit and correct it or add notes. All changes will be seen only by you. Learn more »
launch autoscroll
font size
0
reset
how to read this tab
guitar tuner
edit
Autoscroll
slow
fast
+/-
esc
set tempo
stop
BIG LOVE (Live)

As recorded by Fleetwood Mac
(From the 1997 Album THE DANCE)

Words and Music by Lindsey Buckingham

Transcribed by Slowhand


Gtr I (E A D G B E) - 'Lindsey Buckingham - Nylon-String Acoustic Guitar w/ capo 4th fret'


   Intro
    Q=144
   4/4
    Gtr I (Nylon-String Ac. Gtr. w/ capo 4th fret)
    S S S S E E S S S S E E   E S S E E E S S E E   S S S S E E S S S S E E
||--------------------------|---------------------|--------------------------|
||o-------------------------|---------------------|--------------------------|
||--------2-----------2-----|-2---------2---------|-------2-----------2------|
||--0h2---------0h2---------|-----2---------2-----|-0h2---------0h2----------|
||o-0---0---0-0-0---0---0-0-|---------------------|--------------------------|
||--------------------------|-3-3---3-3-3-3---3-3-|-1---1---1-1-1---1---1-1--|


  1.,2.,3.               4.
  E S S E E E S S E E  4x E S S E E E S S E E
|----------------------||---------------------|
|---------------------o||---------------------|
|-2---------2----------||-2---------2---------|
|-----2---------2------||-----2---------2-----|
|---------------------o||---------------------|
|-0-0---0-0-0-0---0-0--||-0-0---0-0-0-0---0-0-|


   1st & 2nd Verses
    S S S S E E S S S S E E   E S S E E E S S E E
||--------------------------|-----------------------|
||o-------------------------|-----------------------|
||--------2-----------2-----|-2---------2-----------|
||--0h2---------0h2---------|-----2---------2-------|
||o-0---0---0-0-0---0---0-0-|-----------------------|
||--------------------------|-3-3---3-3-3-3---3-3---|


  S S S S E E S S S S E E   E S S E E E S S E E   S S S S E E S S S S E E
|-------------------------|---------------------|--------------------------|
|-------------------------|---------------------|--------------------------|
|-------2-----------2-----|-2---------2---------|-------2-----------2------|
|-0h2---------0h2---------|-----2---------2-----|-0h2---------0h2----------|
|-------------------------|---------------------|-0---0---0-0-0---0---0-0--|
|-1---1---1-1-1---1---1-1-|-0-0---0-0-0-0---0-0-|--------------------------|


  E S S E E E S S E E   S S S S E E S S S S E E   E S S E E E E E E
|---------------------|-------------------------|-------------------||
|---------------------|-------------------------|-------------------||
|-2---------2---------|-------2-----------2-----|-2---------2-------||
|-----2---------2-----|-0h2---------0h2---------|-----2-------------||
|---------------------|-------------------------|---------------0---||
|-3-3---3-3-3-3---3-3-|-1---1---1-1-1---1---1-1-|-0-0---0-0-0-0-0-0-||


 Chorus
  $
  S S S S E E S S S S E E   E S S E E E E E E   S S S S E S S S S S S E S S
|-------------------------|---------------0---|-1p0-----------1p0-----------|
|-------------------------|---------0-1-3-----|-------3---1p0-------3---1p0-|
|-------------------------|-2-----------------|-----------------------------|
|-------3-----------2-----|-----2-------------|-0---0---0-0---2---2---2-0---|
|-1h3---------0h2---------|-0-0---0-0-0-0-0-0-|-----------------------------|
|-1---1---1-1-0---0---0-0-|-------------------|-----------------------------|


  E S S S S E E E E E   S S S S E E S S S S E E   E S S E E S S E E S S
|---------------------|-------------------------|---------------------0-|
|-1-------------------|-------------------------|---------0---1---3-----|
|-2---2-----0-2-2-----|-------------------------|-2---2-----------------|
|---------0---2-2-----|-------3-----------2-----|-2-----------------3---|
|-0-0---0---0-0-0-----|-1h3---------0h2---------|-0-0---0-0-0---0-0-----|
|-----------------0-0-|-1---1---1-1-0---0---0-0-|-----------------------|


                              1.                      2.
                     To Coda
                                             ~~~~~~
  E E S S S S E S S S S S S    E S S S S E E E E E     E S S S S E E E E E
|----------------------------|----------------------||-------------------5--||
|---3---1-----0---1-----0h1--|---------------------o||----------------------||
|-----------0---------0------|-2---2-----0-2-2------||-2---2-----0-2--------||
|-3-3-3---3-----2---2--------|---------0---2--------||---------0---2--------||
|----------------------------|-0-0---0---0-0-0-0-0-o||-0-0---0---0-0-0-0----||
|----------------------------|----------------------||----------------------||


 Interlude
  E     S S E E     S S E E     E
|-8b8.5---5---8b8.5---5---8b8.5-5-|
|---------------------------------|
|---------------------------------|
|-0-----0---0---------------------|
|---------------------------------|
|-------------0-----0---0-0-----0-|


  E     S S E E     S S E E     E   E     S S E E     S S E E E
|-8b8.5---5---8b8.5---5---8b8.5-5-|-8b8.5---5---8b8.5---8---8-8-|
|---------------------------------|-----------------------------|
|---------------------------------|-----------------------------|
|---------------------------------|-0-----0---0-----------------|
|-0-----0---0-0-----0---0-0-----0-|-----------------------------|
|---------------------------------|-------------0-----0---0-0-0-|


            ~~~~~~~~
  E S S E E E E E E   E S S S S E S S S S E E   E S S S S E S E.  E E
|-5---5-----5-------|-------------------------|-----1-----3---1--^0---|
|---------8---------|-----0-----1---0-----1-3-|-5----------------^1-1-|
|-------------------|-2-------2---------0-----|------------------^2---|
|-------------------|-3-3---3---3-2---2---2-2-|---------5---3---------|
|-0-0---0-0-0-0-0-0-|-------------------------|-3-3---3---------------|
|-------------------|-------------------------|-----------------------|


  E S S S S E S S S S E E   E S S S S E E E E E
|-----0-------------------|---------------------||
|-3---------3---1-----1-0-|-1-------------------||
|---------2---------1-----|-2---2-----0-2-------||
|-------------------------|---------0---2-------||
|-2-2---2---2-------------|-0-0---0---0-0-0-0-0-||
|-------------0---0---0-0-|---------------------||


  S S S S S S S S S S S S S S S S   S S S S S S S S S S S S S S S S
|-------0-----------0-----------0-|-------0-----------0-----------0-|
|---0-----------0-----------0-----|---0-----------0-----------0-----|
|-----5-----------5-----------5---|-----4-----------4-----------4---|
|-7-------7---7-------7---7-------|-5-------5---5-------5---5-------|
|---------------------------------|---------------------------------|
|---------------------------------|---------------------------------|


  S S S S S S S S S S S S S S S S   S S S S S S S S S S S S S S S S
|-------0-----------0-----------0-|-------0-----------0-------0-----|
|---0-----------0-----------0-----|---0-----------0-------0---------|
|-----2-----------2-----------2---|-----4-----------4-------4-------|
|-3-------3---3-------3---3-------|-5-------5---5-------5-------5---|
|---------------------------------|---------------------------------|
|---------------------------------|---------------------------------|


  S S S S S S S S S S S S S S S S   S S S S S S S S S S S S S S E
|-------0-----------0-------0-----|-------0-----------0-------0---|
|---0-----------0-------0---------|---0-----------0-------0-------|
|-----5-----------5-------5-------|-----4-----------4-------4-----|
|-7-------7---7-------7-------7---|-5-------5---5-------5-------5-|
|---------------------------------|-------------------------------|
|---------------------------------|-------------------------------|


  S S S S S S S S S S S S S S E   S S S S S S S S S S S S S S S S
|-------0-----------0-------0---|-------0-----------0-------------||
|---0-----------0-------0-------|---0-----------0-------0---5-----||
|-----2-----------2-------2-----|-----4-----------4-------4-------||
|-3-------3---3-------3-------3-|-5-------5---5-------5-------5---||
|-------------------------------|---------------------------------||
|-------------------------------|---------------------------------||


 Bridge
  s S S S s S S S s S S S s S S S   s S S S s S S S s S S S s S S S
|---------------------------------|-------0-------0-----------------|
|---0---0---0---0---0---0---0---0-|---0-------0-------0---0---0---0-|
|-----5-------5-------5-------5---|-----4-------4-------4-------4---|
|-7-------7-------7-------7-------|-5-------5-------5-------5-------|
|---------------------------------|---------------------------------|
|---------------------------------|---------------------------------|


  s S S S s S S S s S S S s S S S   s S S S s S S S s S S S s S S  S
|-------0-------0-------0---------|-------0-------0-------0-------^0-|
|---0-------0-------0-------0-----|---0-------0-------0-------0---^0-|
|-----2-------2-------2-------2s4-|-----4-------4-------4-------4----|
|-3-------3-------3-------3-------|-5-------5-------5-------5--------|
|---------------------------------|----------------------------------|
|---------------------------------|----------------------------------|


  s S S S s S S S s S S S S S S S   s S S S s S S S s S S S s S S S
|-------0-------0-------0---------|-------0-------0-------0-------0-|
|---0-------0-------0-------0---0-|---0-------0-------0-------0-----|
|-----5-------5-------5-------5---|-----4-------4-------4-------4---|
|-7-------7-------7-------7-------|-5-------5-------5-------5-------|
|---------------------------------|---------------------------------|
|---------------------------------|---------------------------------|


                                                  D.S. al Coda
  s S S S s S S S s S S S S S S S   S S S S S S S S S S E E E
|-------0-------0-------0---------|-----0-0-0-0-0-0-0-0-0-0-----||
|---0-------0-------0-------0-----|-----0-0-0-0-0-0-0-0-0-0-----||
|-----2-------2-------2-------2p0-|-----0-0-0-0-0-0-0-0-0-0-----||
|-3-------3-------3-------3-------|-2-2-2-2-2-2-2-2-2-2-2-2-----||
|---------------------------------|-2-2-2-2-2-2-2-2-2-2-2-2-0---||
|---------------------------------|-0-0-0-0-0-0-0-0-0-0-0-0-0---||


  &
  E S S S S E E E Q    S S S S E E E E E E   E S S E E E E E E
|---------------0-0--|---------------0-0-0-|---------------0----|
|---------------1-0--|---------------0-0-0-|---------0-1-3------|
|-2---2-----0-2-2-2--|---------------0-0-0-|-2---2--------------|
|---------0---2-2-2--|-------3-------2-2-2-|--------------------|
|-0-0---0---0-0-0-0--|-1h3---------2---2-2-|-0-0---0-0-0-0-0-0--|
|--------------------|-1---1---1-1-0-------|--------------------|


  S S S S E S S S S S S E S S   E S S S S E E E E E   S S S S E E S S S S E E
|-1p0-----------1p0-----------|---------------------|--------------------------|
|-------3---1-0-------3---1p0-|-1-------------------|--------------------------|
|-----------------------------|-2---2-----0-2-2-----|--------------------------|
|-0---0---0-0---2---2---2-0---|---------0---2-2-----|-------3-----------2------|
|-----------------------------|-0-0---0---0-0-0-----|-1h3---------0h2----------|
|-----------------------------|-----------------0-0-|-1---1---1-1-0---0---0-0--|


  E S S E E S S E E S S   E E S S S S E S S S S S S
|---------------------0-|---------------------------|
|---------0---1---3-----|---3---1-----0---1-----0h1-|
|-2---2-----------------|-----------0---------0-----|
|-2-----------------3---|-3-3-3---3-----2---2-------|
|-0-0---0-0-0---0-0-----|---------------------------|
|-----------------------|---------------------------|


  E S S S S E E S S S S S S
|---------------0-0-0-0-----||
|---------------1-1-1-1-x-x-||
|-2---2-----0-2-2-2-2-2-x-x-||
|---------0---2-2-2-2-2-x-x-||
|-0-0---0---0-0-0-0-0-0-x-x-||
|---------------0-0-0-0-----||


 Outro
  E S S S S S S S S S S S S E   S E S S S S S S S S S S S E
|-0-------------0-0-0-0-------|-0---0-0-0-0-0-0-0-0-0-0-0-0-|
|-1-x-x-x-x-x-x-0-0-0-0-x-----|-1---1-1-1-1-1-0-0-0-0-0-0-0-|
|-2-x-x-x-x-x-x-0-0-0-0-x-x---|-2---2-2-2-2-2-0-0-0-0-0-0-0-|
|-3-x-x-x-x-x-x-2-2-2-2-x-x---|-2---2-2-2-2-2-0-0-0-0-0-0-0-|
|-3-x-x-x-x-x-x-2-2-2-2-x-x-0-|-0---0-0-0-0-0-x-x-x-x-x-x-x-|
|-1-------------0-0-0-0-------|---------------3-3-3-3-3-3-3-|


    S E S S S S S S S S S S S E   S E S S S S S S S S S S S E  3x
||--0---0-0-0-----0-0-0-0-0-0-0-|-0---0-0-0-0-0-0-0-0-0-0-0-0--||
||o-1---1-1-1-x-x-0-0-0-0-0-0-0-|-1---1-1-1-1-1-0-0-0-0-0-0-0-o||
||--2---2-2-2-x-x-0-0-0-0-0-0-0-|-2---2-2-2-2-2-0-0-0-0-0-0-0--||
||--3---3-3-3-x-x-2-2-2-2-2-2-2-|-2---2-2-2-2-2-0-0-0-0-0-0-0--||
||o-3---3-3-3-x-x-2-2-2-2-2-2-2-|-0---0-0-0-0-0-x-x-x-x-x-x-x-o||
||--1---1-1-1-----0-0-0-0-0-0-0-|---------------3-3-3-3-3-3-3--||


  E S S S S S S S S S S S S s S
|-0-0-0-0-0-0-0-0-0-0-0-0-0-0---*|
|-1-1-1-1-1-1-1-0-0-0-0-0-0-1---*|
|-2-2-2-2-2-2-2-0-0-0-0-0-0-2---*|
|-3-3-3-3-3-3-3-2-2-2-2-2-2-2---*|
|-3-3-3-3-3-3-3-2-2-2-2-2-2-0---*|
|-1-1-1-1-1-1-1-0-0-0-0-0-0-----*|


Duration Legend
---------------
W - whole; H - half; Q - quarter; E - 8th; S - 16th; T - 32nd; X - 64th; a - acciaccatura
+ - note tied to previous; . - note dotted; .. - note double dotted
Uncapitalized letters represent notes that are staccato (1/2 duration)
Irregular groupings are notated above the duration line
Duration letters will always appear directly above the note/fret number it represents the
duration for.  Duration letters with no fret number below them represent rests.  Multi-
bar rests are notated in the form Wxn, where n is the number of bars to rest for.  Low
melody durations appear below the staff

Tablature Legend
----------------
 h   - hammer-on
 p   - pull-off
 b   - bend
 pb  - pre-bend
 r   - bend release (if no number after the r, then release immediately)
 /\  - slide into or out of (from/to "nowhere")
 s   - legato slide
 S   - shift slide
  - natural harmonic
[n]  - artificial harmonic
n(n) - tapped harmonic
 ~   - vibrato
 tr  - trill
 T   - tap
 TP  - trem. picking
 PM  - palm muting
\n/  - tremolo bar dip; n = amount to dip
 \n  - tremolo bar down
 n/  - tremolo bar up
/n\  - tremolo bar inverted dip
 =   - hold bend; also acts as connecting device for hammers/pulls
 <>  - volume swell (louder/softer)
 x   - on rhythm slash represents muted slash
 o   - on rhythm slash represents single note slash

Misc Legend
-----------
 |  - bar
||  - double bar
||o - repeat start
o|| - repeat end
*|  - double bar (ending)
 :  - bar (freetime)
 $  - Segno
 &  - Coda
Tempo markers -  = BPM(8/16=s8/s16), where s8 = swing 8ths, s16 = swing 16ths




Looking out for love
In the night so still
Oh I'll build you a kingdom
In that house on the hill
Looking out for love
Big, big love

You said that you love me
And that you always will
Oh you begged me to keep you
In that house on the hill
Looking out for love
Big, big love

I wake up alone
With it all
I wake up
But only to fall

Looking out for love
Big, big love
Just looking out for love
Big, big love

            
            
Suggest correction
Creating personal tab
Creating personal tab
You can edit any tab online and save it as your Personal.

You can edit, replace or remove any tab part or add personal notes – all changes will be seen only by you.

Personal tabs can be accessed anytime from any device, even offline.
Learn more »
Give kudos to tab author, rate the tab!
1 2 3 4 5
comments
print report bad tab
1 comment total.
0 reply
krokkas 10 Sep 03, 2017 02:42 PM

Brilliant tab, captures it perfectly

guest
You may want to rate the tab now too:
select rating
Wanna post a correction for this tab? Suggest correction